Dead By April - Losing You Chords & Tabs

 

Losing You Chords & Tabs

Dead By April Chords & Tabs

Version: 2 Type: Chords 0 ratings
1 star 2 stars 3 stars 4 stars 5 stars
comments

Losing You Chords

   
Hello! This is a great song from the swedish band "Dead by April" , I didn't found any 
version of this song here in UG so I did my own, and here it is! Hope you enjoy it. 
Mail me at kuparinen85@hotmail.com

Intro

*just play this note the first time

e|--------------------------------------------------||
B|--------------------------------------------------|| x2
G|--------------------------------------------------||
D|----7-8-------5-7----------5----------------------||
A|--5---------5---------5-8--------5-7-8-8-7-5*-----||
E|--------------------------------------------------||


Bb                              Dm
What I have in me, in my mind is you
                       A5
I would die if we were through

Bb                                       Dm
What I'm feeling now, What I'm having is you
                   A5 (fade)
I am lost in pain without you (so cold, so alive)


F     C       Dm
All I have is you and it's all that I'm breathing for
F     C       Dm
All I need is you now I can't make it through


*just play this note the first time
[ Tab from: http://www.guitartabs.cc/tabs/d/dead_by_april/losing_you_crd_ver_2.html ]
e|--------------------------------------------------||
B|--------------------------------------------------|| x2
G|--------------------------------------------------||
D|----7-8-------5-7----------5----------------------||
A|--5---------5---------5-8--------5-7-8-8-7-5*-----||
E|--------------------------------------------------||


Bb                                       Dm
All the nights I've prayed mostly, sadly untrue
                     A5
I am not prepared to be strong

Bb                              Dm
I just can't belive I am losing you
                 A5  Dm     Dm              A5(fade)
Not prepared to carry on I can see you walk away (so cold, so alive)


F     C       Dm
All I have is you It is all that I'm breathing for

F     C       Dm
All I need is you now I can't make it through

F           C   Bb
I am losing you forever

F            C    Bb
I am lost in pain without you

F            C      Bb
I am leaving ground forever
(forever)


De va de!!
Comments