Dead Brain Cells - Primordium Chords & Tabs

 

Primordium Chords & Tabs

Dead Brain Cells Chords & Tabs

Version: 1 Type: Tab 0 ratings
1 star 2 stars 3 stars 4 stars 5 stars
comments

Primordium Tab

   
/--------------------------------------------------------------------------\
/ The following is the author's own interpertation of the song, to be used \
/ For private use and studying                                             \
/--------------------------------------------------------------------------\

                      Dead Brain Cells - PRIMORDIUM
                        From the Album UNIVERSE 
                    Copyright 1989 RELATIVITY RECORDS

                       Version 1.0 - MARCH 2001

Transcribed by: LOUIS RIEL 

For Questions, Comments, Newest Version, or Corrections contact
       Louis Riel at: riel2102@aei.net




  - pam mute                     /  - slide up to
\  - slide down to                ~  - vibrato
h  - hammer on                    b  - bend
p  - pull off                          Suffixes for bend
ph - pinch harmonic                     f - full bend    h - half bend
*  - see comment                        r - release      t - tap bend
X  - percussion note                    ~ - vibrato bend
@  - slight palm mute             ()  - ghost note, sustained note
"  - tremolo pick until next note




Tune to Eb (Eb,Ab,Db,Gb,Bb,Eb)


			  Riff A.1 distorted + intro		
|---------------|---------------|---------------|---------------|---------------|---------------------------|
|---------------|---------------|---------------|---------------|---------------|---------------------------|
|---------------|---------------|---------------|---------------|---------------|---------------------------|
|--------5------|--------6------|--------5------|--------4------|--------5------|---------------------------|
|------4---4----|------5---5----|------4---4----|------3---3----|------4---4----|----3-2---2-1--------------|
|--3-6-------6|7|--4-7-------7|6|--3-6-------6|5|--2-5-------5|6|--3-6-------6--|--4-----3------------------|
|
|
|-------------------------------------------------------|---------------------------------------------------|
|-------------------------------------------------------|---------------------------------------------------|
|-------------------------------------------------------|---------------------------------------------------|
|-------------------------------------------------------|-------------------------4-------3-----------------|
|-------8-----------------------------------------------|---------4-------3---------------------------------|
|-0-0-0---10-8-0-5-0-7-0-8-0-7-0-10-0-8-0-7-0-8-0-7-0-3-|-2-2-2-2---2-2-2---2-2-2---2-2-2---222-0-0-0-------|

					       * 2nd&4th time only 
|-------------------------------------------------------|---------------------------------------------------|
|-------------------------------------------------------|---------------------------------------------------|
|----------------------------------------------*--------|---------------------------------------------------|
|--8-9-----------8-9---------8-9---9-10-9--8-9-8--------|-------------------------4-------3-----------------|
|--8-9-----------8-9---------8-9---9-10-9--8-9-8--------|---------4-------3---------------------------------|
|--6-7-0-0-0-0-0-6-7-0-0-0-0-6-7-0-7-8--7--6-7-6-0-0-0--|-2-2-2-2---2-2-2---2-2-2---2-2-2---222-------------|
|
|
|----------------------------------------------------------------------------------------------------------|
|----------------------------------------------------------------------------------------------------------|
|----------------------------------------------------------------------------------------------------------|
|---------------------------------------------4------------------------------------------------------------|
|---------5-4------------5-4---5-4----------3---3-----------5-4------------5-4---5-4---5-4-----------------|
|-4-4-4-4-----7-4-4-4-4------7-----7---2--5-------5-4-4-4-4-----7-4-4-4-4------7-----7-----7---------------|
[ Tab from: http://www.guitartabs.cc/tabs/d/dead_brain_cells/primordium_tab.html ]
|---------------|---------------|--------------|-------------------------------------------------------------|
|---------------|---------------|--------------|-------------------------------------------------------------|
|---------------|---------------|--------------|-------------------------------------------------------------|
|--------4------|--------5------|--------------|-------------------------------------------------------------|
|------3---3----|------4---4----|----3-2---2-1-|-----------2h4---------5-----5-4-2---------------------------|
|--2-5-------5|6|--3-6-------6--|--4-----3-----|-0h2-2-2-2-----2-2-2-2---2-2---------------------------------|
|
|
|----------------------------------------------------------------------------------------------------------|
|----------------------------------------------------------------------------------------------------------|
|----------------------------------------------------------------------------------------------------------|
|--------7////----------------------2--4----------2--4----------7////--------------------------------------|
|-----------------10/////-----------2--4----------2--4-------------------10/////---------------------------|
|--5-5-5--------8-----------2-2-2-2-------2-2-2-2---------5-5-5--------8-----------------------------------|

some times
|----------------------|----------------------|--------------------------------------------------------------|
|----------------------|----------------------|--------18-------19-------18----------------------------------|
|----------------------|----------------------|--18-17----18-17----18-17----18-17--19-18-17------------------|
|-----------------*----|----------------------|--------------------------------------------------------------|
|---------6-----6-7-5--|-7-4-44-7-444---------|--------------------------------------------------------------|
|-4-4-4-4-6-444-6-7-5--|----------------------|--------------------------------------------------------------|
|
|
|----------------------------------------------------------------------------------------------------------|
|----------------------------------------------------------------------------------------------------------|
|---------------------------------------------3------------------------------------------------------------|
|---------------------------------------------3------------------------------------------------------------|
|---------------------------------------------1---------------------2-1--------------3-2-------------------|
|-1-00000-1-0000--1-0-1-0-1-0-1-0-1-0-1-0-1-0---1-00-1-00-1-00-1-00------3-2-1-2-3-4-----3-2---------------|


|----------------------------------------------------------------------------------------------------------|
|----------------------------------------------------------------------------------------------------------|
|-----------------------------3----------------------------------------------------------------------------|
|-----------------------------3----------------------------------------------------------------------------|
|-----------------------------1---------------------2-1--------------3-2-----------------------------------|
|-1-0-1-0-1-0-1-0-1-0-1-0-1-0---1-00-1-00-1-00-1-00------3-2-1-2-3-4-----3-2-1-----------------------------|
|
|
|-------------------------------------|---------------------------------------------------------------------|
|-------------------------------------|---------------------------------------------------------------------|
|-------------------------------------|---------------------------------------------------------------------|
|--9-8----12-11--6------9-8---7-6-----|---------------------------------------------------------------------|
|--7-6-9--10-9-7-4------7-6-9-5-4-----|---------------------------------------------------------------------|
|------7-------5---000------7-----0---|---------------------------------------------------------------------|


|----------------------------------------------------------------------------------------------------------|
|----------------------------------------------------------------------------------------------------------|
|---------------------------------10-----------------------------------------------------------------------|
|-2------4--3------2------4--3----10-----------------------------------------------------------------------|
|-2------2--1------2------2--1----8------------------------------------------------------------------------|
|-0----------------0---------------------------------------------------------------------------------------|
|
|
|------------------------------------------|----------------------|------------------------------------------|
|------------------------------------------|----------------------|------------------------------------------|
|-------7-----9-8---8----------------------|---------7---9-8---8--|------------------------------------------|
|---8-9---9-8-----9---9-8-7-8-7------------|----8-9----------9----|-------8-9--------------------------------|
|-7-----------------------------8-7--------|--7-------------------|-----10-----7-----------------------------|
|------------------------------------------|----------------------|------------------------------------------|




Check out Opeth's Domain, the only place to find Opeth tabs:
               http://darkwood.com/opeth/
lwy
Comments