De Skrigende Halse - Riders Of Depression Chords & Tabs

 

Riders Of Depression Chords & Tabs

De Skrigende Halse Chords & Tabs

Version: 2 Type: Tab 0 ratings
1 star 2 stars 3 stars 4 stars 5 stars
comments

Riders Of Depression Tab

De Skrigende Halse – Riders Of Depression
Tuning : Standard
Tabbet af : iron_madsen@hotmail.com 

Begge Guitar:
|-------------------------------|
|-------------------------------|
|-------------4-5-5-5-5-5-5-4-2-|
|-2-2-2-2-2-2-4—5-5-5-5-5-5-4-2-|
|-2-2-2-2-2-2-2-3-3-3-3-3-3-2-0-|
|-0-0-0-0-0-0-------------------|

Begge Guitar:
 Pm............................
|-------------------------------|
|-------------------------------|
|-------------4-5-5-5-5-5-5-4-2-|
|-2-2-2-2-2-2-4—5-5-5-5-5-5-4-2-|
|-2-2-2-2-2-2-2-3-3-3-3-3-3-2-0-|
|-0-0-0-0-0-0-------------------|

Guitar 1:
|-------------------------------|
|-------------------------------|
|-------------4-5-5-5-5-5-5-4-2-|
|-2-2-2-2-2-2-4—5-5-5-5-5-5-4-2-|
|-2-2-2-2-2-2-2-3-3-3-3-3-3-2-0-|
|-0-0-0-0-0-0-------------------|
Guitar 2:
|----------------------------------------|
|-------------12—13-13-13-13-13-13-12-10-|
|-9-9-9-9-9-9----------------------------|
|----------------------------------------|
|----------------------------------------|
|----------------------------------------|

Begge Guitar:
 Pm............................
|-------------------------------|
|-------------------------------|
|-------------4-5-5-5-5-5-5-4-2-|
|-2-2-2-2-2-2-4—5-5-5-5-5-5-4-2-|
|-2-2-2-2-2-2-2-3-3-3-3-3-3-2-0-|
|-0-0-0-0-0-0-------------------|
[ Tab from: http://www.guitartabs.cc/tabs/d/de_skrigende_halse/riders_of_depression_tab_ver_2.html ]
Begge Guitar:
 Pm..........
|-------------------------|
|-------------------------|
|-------------5-5-5-5-5-5-|
|-2-2-2-2-2-2-5-5-5-5-5-5-|
|-2-2-2-2-2-2-3-3-3-3-3-3-|
|-0-0-0-0-0-0-------------|

Guitar 1:
|-------------------------------|
|-------------------------------|
|-------------4-5-5-5-5-5-5-4-2-|
|-2-2-2-2-2-2-4—5-5-5-5-5-5-4-2-|
|-2-2-2-2-2-2-2-3-3-3-3-3-3-2-0-|
|-0-0-0-0-0-0-------------------|
Guitar 2:
|----------------------------------------|
|-------------12—13-13-13-13-13-13-12-10-|
|-9-9-9-9-9-9----------------------------|
|----------------------------------------|
|----------------------------------------|
|----------------------------------------|

Begge Guitar
		 V..........
|----------------------------------|
|----------------------15-15-15-15-|
|-5-7-9-7-9-11-9-11-13-13-13-13-13-|
|----------------------------------|
|----------------------------------|
|----------------------------------|
(sidste gang vibrere du bare lidt flere gang pε sidst akkord)

Guitar 1:
|-------------------------------|
|-------------------------------|
|-------------4-5-5-5-5-5-5-4-2-|
|-2-2-2-2-2-2-4—5-5-5-5-5-5-4-2-|
|-2-2-2-2-2-2-2-3-3-3-3-3-3-2-0-|
|-0-0-0-0-0-0-------------------|
Guitar 2:
|----------------------------------------|
|-------------12—13-13-13-13-13-13-12-10-|
|-9-9-9-9-9-9----------------------------|
|----------------------------------------|
|----------------------------------------|
|----------------------------------------|

Begge Guitar:
|---|
|---|
|---|
|-2~|
|-2~|
|-0~|

Pm...... (Palm mute alle akkorder under)
V....... (Vibrere pε strengene under)
~        (Lad tonen stε)
Comments