De Mens - Liefde Maal Zeven Chords & Tabs

 

Liefde Maal Zeven Chords & Tabs

De Mens Chords & Tabs

Version: 1 Type: Tab 0 ratings
1 star 2 stars 3 stars 4 stars 5 stars
comments

Liefde Maal Zeven Tab

   
                                   DE MENS
                                  -=======-
Titel: Liefde Maal 7
Album: Liefde (2001)
-===========================================================================-

Main Riff:
            Em7  G6          A    Dmaj7      Em7  G6      A       Dmaj7
e-------||--3----0-----------5-------------|-3----0------------------------||
B-------||.-3----5-----------5----7--------|-3----5---5S7---------7---5-7-.||
G-2S3S4-||--4----4----4S5S6--6----6--2S3S4-|-4----4-------6-------6--------||
D-------||---------------------------------|-------------------------------||
A-------||.-----------------------5--------|----------------------5-------.||
E-------||--0----3-----------5-------------|-0----3-----------5------------||

Fill:          Fill 2:

e--------      e------------10-----------|
B--------      B-10H11H12------10P9P8----|
G-2H3H4--      G-----------------------9-|
D-------2      D-------------------------|
A--------      A-------------------------|
E--------      E-------------------------|

Legende:
 H = hammer on
 S = slide
 |: :| = herhalingstekens

Akkoorden:
Em7   0XX433
G6    3XX450
A     5XX655
Dmaj7 X5X67X

-===========================================================================-

  Main Riff (x3)

Liefde maal zeven / Zo moet dat zijn                Main Riff
Liefde maal zeven / Tegen de pijn
Iedereen heeft zeker zijn eigen recept
Maar liefde maal zeven is voor mij perfect

Liefde maal zeven / Dat is mijn kerk                Main Riff &
Liefde maal zeven / Is de helft van het werk         Em7 - G6 - A - Dmaj7
Ik praat soms over zaken waar ik niets over weet
Maar liefde maal zeven maakt het leven compleet

Owoohoohoohoohoohoohoo hoo		            Main Riff &
Owoohoohoohoohoohoohoo hoo (Fill 2)                  Em7 - G6 - A - Dmaj7

Liefde maal zeven / Hoe arm is de man               Main Riff &
Die in zijn leven / Geen liefde maal zeven kan       Fill
Liefde maal zeven geeft me altijd gelijk
Liefde maal zeven doet de was en de strijk
[ Tab from: http://www.guitartabs.cc/tabs/d/de_mens/liefde_maal_zeven_tab.html ]
Owoohoohoohoohoohoohoo hoo                          Main Riff
Owoohoohoohoohoohoohoo hoo (Fill 2)
Owoohoohoohoohoohoohoo hoo
Owoohoohoohoohoohoohoo hoo

Liefde maal zeven / Ik mocht hier niet zijn         Em7 - G6 - A - Dmaj7 &
Liefde maal zeven / Op verboden terrein               rare geluidjes
Liefde maal zeven bijna bezit
De dag was fijn ik had geen pijn en nu hoor ik dit

         Em7  G6          A    Dmaj7      Em7  G6      A       Dmaj7
e--------3----0-----------5-------------|-3----0---------------------|
B--------3----5-----------5----7--------|-3----5---5--5-5-5-5S7-5----|
G-2S3S4--4----4----4S5S6--6----6--2S3S4-|-4----4-----4-4---4------4--|
D---------------------------------------|----------------------------|
A------------------------------5--------|----------------------------|
E--------0----3-----------5-------------|-0----3---------------------|

Liefde maal zeven maal zeven maal zeven (maal ...)  Main Riff
Liefde maal zeven maal zeven maal zeven
Iedereen iedereen iedereen iedereen
Iedereen

  Main Riff & Em - G - A - D & rare geluidjes

Owoohoohoohoohoohoohoo hoo                          Em7 - G6 - A - Dmaj7 &
Owoohoohoohoohoohoohoo hoo                            rare geluidjes
Owoohoohoohoohoohoohoo hoo
Owoohoohoohoohoohoohoo hoo

         Em7  G6          A    Dmaj7      Em7  G6      A
e--------3----0-----------5-------------|-3----0---------|
B--------3----5-----------5----7--------|-3----5---5S7---|
G-2S3S4--4----4----4S5S6--6----6--2S3S4-|-4----4-------6-|
D---------------------------------------|----------------|
A------------------------------5--------|----------------|
E--------0----3-----------5-------------|-0----3---------|

-===========================================================================-

Speciaal bedankje voor:
 Mr. Vander linden
 alle FanMensen

Op onderstaande website kun je nog meer De Mens-gekte leren spelen:

http://www.geocities.com/gitaarmens

Voor info over de mens: http://www.demens.be/ (de offici?le De Mens-site)

!!! OPGELET !!!
Dit is een persoonlijke opvatting en alzo heeft dit niets te maken met
een officieel document
Comments