De Mens - Ergens Onderweg Chords & Tabs

 

Ergens Onderweg Chords & Tabs

De Mens Chords & Tabs

Version: 2 Type: Bass Tab 0 ratings
1 star 2 stars 3 stars 4 stars 5 stars
comments

Ergens Onderweg Bass Tab

                                   DE MENS
                                  -=======-
Titel: Ergens Onderweg (Bass)
Album: Liefde (2001)
Door: Bart Tas
-===========================================================================-
Een oplettende basgitarist heeft terecht opgemerkt, dat Michel echt wel
beter kan bassen dan wat de vorige versie beschreef.

Hier volgt de betere versie:

D-----------------------------------------------------------------|
A-----------------5-5-5-5-5-5-5-5-----------------3-3-3-3-3-3-3-3-|  x12
E-3-3-3-3-3-3-3-3-----------------5-5-5-5-5-5-5-5-----------------|

D-5-5-5-5-5-5-5-5-0-0-0-0-0-0-0-0-7-7-7-7-7-7-7-7-----------------|
A-------------------------------------------------3-3-3-3-3-3-3-3-|  x2
E-----------------------------------------------------------------|

D-5-5-5-5-5-5-5-5-5-5-5-5-5-5-5-5-7-5-5-5-5-5-5---0-0-0-0-0-0-0-0-|
A-----------------------------------------------0-----------------|  x2
E-----------------------------------------------------------------|

D-----------------------------------------------------------------|
A-----------------5-5-5-5-5-5-5-5-----------------3-3-3-3-3-3-3-3-|  x1
E-3-3-3-3-3-3-3-3-----------------5-5-5-5-5-5-5-5-----------------|
[ Tab from: http://www.guitartabs.cc/tabs/d/de_mens/ergens_onderweg_btab_ver_2.html ]
D-----------------------------------------------------------------|
A-------------------------------------------------3---------------|  x1
E-3-3-3-3-3-3-3-3-2-2-2-2-2-2-2-2-5-5-5-5-5-5-5-5-----------------|

Break (3 tellen)

D-----------------------------------------------------------------|
A-----------------5-5-5-5-5-5-5-5-----------------3-3-3-3-3-3-3-3-|  x2
E-3-3-3-3-3-3-3-3-----------------5-5-5-5-5-5-5-5-----------------|

D-5-5-5-5-5-5-5-5-0-0-0-0-0-0-0-0-7-7-7-7-7-7-7-7-----------------|
A-------------------------------------------------3-3-3-3-3-3-3-3-|  x1
E-----------------------------------------------------------------|

D-----------------------------------------------------------------|
A-----------------5-5-5-5-5-5-5-5-----------------3-3-3-3-3-3-3-3-|  x6
E-3-3-3-3-3-3-3-3-----------------5-5-5-5-5-5-5-5-----------------|


-===========================================================================-

Speciaal bedankje voor:
 Bart Tas (voor het uitwerken van de baslijn)

Op onderstaande website kun je nog meer De Mens-gekte leren spelen:

http://www.geocities.com/gitaarmens

Voor info over de mens: http://www.demens.be/ (de offici?le De Mens-site)

!!! OPGELET !!!
Dit is een persoonlijke opvatting en alzo heeft dit niets te maken met
een officieel document
Comments