De Dijk - Een Man Chords & Tabs

 

Een Man Chords & Tabs

De Dijk Chords & Tabs

Version: 1 Type: Tab 0 ratings
1 star 2 stars 3 stars 4 stars 5 stars
comments

Een Man Tab

   
#----------------------------------PLEASE NOTE---------------------------------#
#This file is the author's own work and represents their interpretation of the #
#song. You may only use this file for private study, scholarship, or research. #
#------------------------------------------------------------------------------#
#
Date: Thu, 18.11.2003
Tabbed by Peter Tuyp(peter.tuyp@wxs.nl)

subject: de Dijk - Een man weet niet wat ie mist


Chords:
Em	022000
Am	x02220
C/g	332010
F	133211
Fmaj7	x33210
D	xx0232
Dsus4	xx0233
G	320003
Gsus4	320013
Bm	x24432
Bsus2	x24422
C	x32010
Cmaj7   x32000
^	strum down
v	strum up

Intro:

  Em          A   Em          A
|-0-----------0---0-----------0-----7----|
|-0-----------2---0-----------2-----8----|
|-0-----------2---0-----------2----------|
|-2---------0-2---2---------0-2/8-9------|
|-2-------2---0---2-------2---0----------|
|-0-0-2-3---------0-0-2-3----------------|


Verse 1:

  Em                                    A 
|-0------------------------------------0---|
|-0------------------------------------2---|
|-0------------------------------------2---|
|-2-----------------------0------------2---|
|-2---------------------2--------------0---|
|-0---------------0-2-3--------------------|
  Tien tegen een dat ik mijn mond hou, als ik je weer zie

  Em                       A 
|-0------------------------0---|
|-0------------------------2---|
|-0------------------------2---|
|-2---------------------0--2---|
|-2-------------------2----0---|
|-0-------------0-2-3----------|
  Ik ken mezelf onderhand, een prater ben ik niet

  C/g             G                 
|-0-----------------0-----------------|
|-1-----------------1-----------------|
|-0-----------------------------------|
|-2-----------------------0-0---------|
|-3-------------------0h2-----0h2-----|
|-3---------------3---------------3---|
  Hoe was het hier zal je vragen 

  C/g             G                 
|-0-----------------0------------------|
|-1-----------------1------------------|
|-0------------------------------------|
|-2-----------------------0-0----------|
|-3-------------------0h2-----0h2------|
|-3---------------3---------------3----|
  En ik zal zeggen goed

    ^ ^^                           ^v^ ^^v                        ^ ^^v ^     v
    F                              Fmaj7                          D     Dsus4 D
  En ik zeg je niet wat ik nu denk dat ik je eigenlijk zeggen moet

chorus:
     
      ^ ^     ^              ^v^^ ^     ^                    ^v^^ ^     ^
      G Gsus4 G              Bm   Bsus2 Bm                   F    Fmaj7 F 
  Een man weet niet wat   ie mist,          weet niet wat ie mist

                           ^v^^ ^     ^
                           C    Cmaj7 C
  Een man weet niet wat ie mist
[ Tab from: http://www.guitartabs.cc/tabs/d/de_dijk/een_man_tab.html ]
      ^v^ ^     ^            ^v^^ ^     ^                         ^v^^ ^     ^
      G   Gsus4 G            Bm   Bsus2 Bm                        F    Fmaj7 F 
  Een man weet niet wat   ie mist,          Maar als ze d'er niet is

                        ^v^^ ^     ^
                        C    Cmaj7 C
  Maar als ze d'er niet is

                         ^              ^ 
                         Em             A       
  Weet 'n man pas wat ie mist    

                   ^             ^
                   Em            A                  
  Als ze d'er niet is 


Verse 2:

  Em                        G                 A
  Jij praat honderduit over hoe het was, over hoe je het hebt gehad

  Em                  G              A
  Misschien als ik op dreef ben, zeg ik een keertje schat.

      C                G                    C              G
  Dan vraag je mij hoe was het bij jou, hooguit zeg ik dan stil

        F                                                           D  Dsus4  D
  En ik zeg je weer niet wat ik nu denk, dat ik je eindelijk zeggen wil


Chorus:
   
      G Gsus4 G              Bm Bsus2 Bm                     F Fmaj7 F 
  Een man weet niet wat   ie mist,          weet niet wat ie mist

                           C Cmaj7 C
  Een man weet niet wat ie mist

      G Gsus4 G              Bm Bsus2 Bm                          F Fmaj7 F 
  Een man weet niet wat   ie mist,          Maar als ze d'er niet is

                        C Cmaj7 C
  Maar als ze d'er niet is

  
Bridge:

      Am                       G              D Dsus4 D
  Pas nu je hier niet bent, nu voel ik het in mij

  Am                     G           D                                Em
  Nu jij mij niet hoort, voel ik het woord voor woord voor woord voor woord


  Solo:

  Em  G  A  Em  A,  Em  G  A  Em  A,  Em  G  A  Em  A

  C  G  C  G  F  C  D 


Chorus:

      G Gsus4 G              Bm Bsus2 Bm                     F Fmaj7 F 
  Een man weet niet wat   ie mist,          weet niet wat ie mist

                           C Cmaj7 C
  Een man weet niet wat ie mist

      G Gsus4 G              Bm Bsus2 Bm                          F Fmaj7 F 
  Een man weet niet wat   ie mist,          Maar als ze d'er niet is

                        C  Cmaj7  C
  Maar als ze d'er niet is

                         Em(slow strum up)                    
  Weet 'n man pas wat ie mist
Comments