Dc Talk - My Friend So Long Chords & Tabs

 

My Friend So Long Chords & Tabs

Dc Talk Chords & Tabs

Version: 2 Type: Tab

My Friend So Long Tab

   
Dc Talk - My Friend (So Long)

This is the first part, when the intro stops short...

       E          G#        D           G
e-----------------------------2-----------------|
B-------------------------------3---------------|
G-------1---------5---------2------------4------|
D---------2----------6----0---------------------|
A-----2---------6----------------------6--------|
E---0---------4----------------------3----------|

Then he repeats it to completion:
[ Tab from: http://www.guitartabs.cc/tabs/d/dc_talk/my_friend_so_long_tab_ver_2.html ]
    E           G#          D          G
-----------------------------2------------------|
-------------------------------3----------------|
-------1---------5---------2------------4-------|
---------2----------6----0----------------6-----|
-----2---------6----------------------6---------|
---0---------4----------------------3-----------|

   C       F# or Gb       A          C
------------------------------------------------|
----1----------------------2----------0---------|
------0--------3-------------2----------1-------|
--2--------------4-------2----------2-----------|
-3------------4--------0----------3-------------|
-----------2------------------------------------|

...and repeat the completed section again throughout the verse. This is done by ear, let 
me know if there's anything wrong with it.