Dc Talk - Jesus Freak Chords & Tabs

 

Jesus Freak Chords & Tabs

Dc Talk Chords & Tabs

Version: 4 Type: Tab 0 ratings
1 star 2 stars 3 stars 4 stars 5 stars
comments

Jesus Freak Tab

   
I think that this song I played in E.
Tabbed by Aaron Allen
DC Talk 
Jesus Freak

Intro: E G A B
       E G A B  (Harmonics on 3rd Fret)


e|--------------------------------------------------------------|
b|--------------------------------------------------------------|
g|--------------------------------------------------------------|
d|-3-3---5/6-6-6-----------------------------play-4-times-------|
a|-3-3---5/6-6-6--6-6---5-5---3-3-3~----------------------------|
E|-1-1---3/4-4-4------------------------------------------------|
[ Tab from: http://www.guitartabs.cc/tabs/d/dc_talk/jesus_freak_tab_ver_4.html ]
During the slow singing Before Rap play this 4 times
e|--------------------------------------------------------------|
b|--------------------------------------------------------------|
g|--------------------------------------------------------------|
d|--------5/6-6--3--3-3-3--3-3-x-xx-xx--------Repeat-4-times----|
a|-3-3----3/4-4--1--1-1-1--1-1-x-xx-xx--------------------------|
E|-1-1----------------------------------------------------------|

(solo)

e|-----------------------------------14-------------------------|
b|--------------------------------------14-14-14-\--------------|
g|-----------------------/14------------------------------------|
d|-/11-11-11-----------------12-12-12---------------------------|
a|-----------10h11-11-11----------------------------------------|
E|--------------------------------------------------------------|

I think the solo is the way i play it, I'm doing this from memory at school,
So I don't have a guitar with me to figure it out. Thats how I do it i just
don't remember what fret it is on.
Comments