Dc Talk - Jesus Freak Chords & Tabs

 

Jesus Freak Chords & Tabs

Dc Talk Chords & Tabs

Version: 2 Type: Tab 0 ratings
1 star 2 stars 3 stars 4 stars 5 stars
comments

Jesus Freak Tab

This one works for me you just have to listen to the song to get it down right

Intro/Chorus
------------------------------------------------------------
------------------------------------------------------------
----2-2-2--------7-7/9-9------2-2-2---------7-7--6-6--4-4-4-
----2-2-2-4-4-4--5-5/7-7------2-2-2--4-4-4--5-5--4-4--2-2-2-
----------3-3-3----------------------3-3-3------------------
[ Tab from: http://www.guitartabs.cc/tabs/d/dc_talk/jesus_freak_tab_ver_2.html ]
Verse
   
------------0--0-0--0-0-0-0---------------------------------
------------1--1-1--0-0-0-0---------------------------------
----0-0-----0--0-0--2-2-2-2---------------------------------
----2-2-----2--2-2--2-2-2-2---------------------------------
----2-2-----3--3-3--0-0-0-0---------------------------------
----0-0-----0--0-0--0-0-0-0---------------------------------

Rap

-0-0-0-0-0-0-0-0-0-0-0-0-0-0-0-
-0-0-0-0-0-0-0-0-0-0-0-0-0-0-0-
-0-0-0-0-0-0-0-0-0-0-0-0-0-0-0-
-9-9-9-9-9-9-9-9-9-9-9-9-9-9-9-
-7-7-7-7-7-7-7-7-7-7-7-7-7-7-7-
-0-0-0-0-0-0-0-0-0-0-0-0-0-0-0-
Comments