Dc Talk - Jesus Freak Chords & Tabs

 

Jesus Freak Chords & Tabs

Dc Talk Chords & Tabs

Version: 2 Type: Bass Tab 0 ratings
1 star 2 stars 3 stars 4 stars 5 stars
comments

Jesus Freak Bass Tab

"jesus freak"  by DC talk
from the album "jesus freak" (c. FOREFRONT 1995)
as played by jamie nicol on bass
EMAIL address (nicol@mail.austasia.net)

MAIN INTRO CHORUS RIFF
|--------|--------|
|--------|--------|
|-------6|6-------|
|1114444-|-668888-|

VERSE RIFF 1
|--------|--------|
|3-------|--------|
|----4---|1-------|
|--------|--------|

VERSE RIFF 2
|--------|--------|
|3333----|--------|
|----4444|11111111|
|--------|--------|
[ Tab from: http://www.guitartabs.cc/tabs/d/dc_talk/jesus_freak_btab_ver_2.html ]
BASS RIFF BEFORE GUITAR SOLO BREAK
|-------10-12-13-------|-------10-12-10-10----|                                                     
|----10----------------|----10----------------|
|-8--------------------|-8--------------------|
|----------------------|----------------------|

BASS RIFF BEHIND GUITAR SOLO

|--------|--------|--------|--------|
|--------|--------|--------|--------|
|5555---5|---5----|5555---5|---5-5-5|
|----444-|444-4640|----444-|444-4-4-|
Comments