Dc Talk - In The Light Chords & Tabs

 

In The Light Chords & Tabs

Dc Talk Chords & Tabs

Version: 4 Type: Bass Tab 0 ratings
1 star 2 stars 3 stars 4 stars 5 stars
comments

In The Light Bass Tab

   
From the Album: Welcome to the Freak Show
This is the live version, but it can be played with the CD. If you want to play it
without doing the harder parts like the bridge and the 2nd chorus then just play the
chorus 1 and the bridge I don't know about because I haven't played it with something
else.

Intro (4x)
G-------------|
D-------------|
A-------------|
E-000-222-444-|
Verse (same as intro)
Pre-Chorus (same as intro and verse)

Chorus

G-------------------------------------------------------------------------|
D-------------------------------------------------------------------------|
A-------------------------------------------------------------------------|
E-000-777-22-4444-000-777-222222-000-777-22-4444-000-222-444444-000-222-4-|

Bridge

G------------------------------------------------------------------------------|
D--------------6-------------6-8-6-6h8-6-------------------6-------------------|
A-4-6-------4-6-6-----------4-6---6-----------------------4-6------------------|
E----4-0-7-2-----4-0-7-222/9------------07-79-2-444h6-07-2---4-07-79-222-444h6-|

Chorus Version 2 (come in a little after the bongos start
G---------4---------------------------------------------|
D------222-4-444-6--222-4--666-6--222-4--666-6----------|
A-6h7/9-----2-----6------4-------6------4-------6-------|
E------------------4------2--------4------2-------4-0-2-|
[ Tab from: http://www.guitartabs.cc/tabs/d/dc_talk/in_the_light_btab_ver_4.html ]
Outro (repeat over and over)
G------------------------|
D------------------------|
A------------------------|
E-00-00-22-22-44-44-44-2-|

End
G-------|
D-------|
A-------|
E-0-2-4-|

Order: Intro, Verse, Pre Chorus, Chorus, Verse, Pre Chorus, Chorus, Bridge, Pre Chorus, 
Chorus 2, Ourto, End

Verse x4
I keep trying to find a life
On my own, apart from You
I am the king of excuses
I've got one for every selfish thing I do

Pre Chorus x4
What's going on inside of me?
I despise my own behavior
This only serves to confirm my suspicions
That I'm still a man in need of a Savior

Chorus x6
I wanna be in the Light
As You are in the Light
I wanna shine like the stars in the heavens
Oh, Lord be my Light and be my salvation
Cause all I want is to be in the Light
All I want is to be in the Light

Verse x4
The disease of self runs through my blood
It's a cancer fatal to my soul
Every attempt on my behalf has failed
To bring this sickness under control

Pre Chorus x4
What's going on inside of me?
I despise my own behavior
This only serves to confirm my suspicions
That I'm still a man in need of a Savior

Bridge x 1 or 2

Chorus V2 x2
I wanna be in the Light
As You are in the Light
I wanna shine like the stars in the heavens
Oh, Lord be my Light and be my salvation
Cause all I want is to be in the Light
All I want is to be in the Light

I like this song, I've played this with a friend and it sounded great. So even though 
from the live album it sounds like the way it does on the CD.
Comments