Dc Talk - In The Light Chords & Tabs

 

In The Light Chords & Tabs

Dc Talk Chords & Tabs

Version: 3 Type: Bass Tab 0 ratings
1 star 2 stars 3 stars 4 stars 5 stars
comments

In The Light Bass Tab

   
If you want to know how to play it, listen to the cd.
Don't play under the intro

D|---------------|---------------|---------------|---------------|---------------|
G|---------------|---------------|---------------|---------------|---------------|
A|---------------|-------------2-|---------------|---------------|-------------2-|
E|-0-0-2-2-4-4-4-|-0-0-2-2-4-4---|-0-0-2-2-4-4-4-|-0-0-2-2-4-4-4-|-0-0-2-2-4-4---|


D|---------------|---------------|---------------|
G|---------------|---------------|---------------|
A|---------------|---------------|-------------2-|
E|-0-0-2-2-4-4-4-|-0-0-2-2-4-4-4-|-0-0-2-2-4-4---|


BRIDGE
D|---------------|---------------|-----------------|---------------|
G|---------------|---------------|-----------------|---------------|
A|-------------2-|---------------|---------------2-|---------------|
E|-0-0-2-2-4-4---|-0-0-2-2-4-4-4-|-0-0-2-2-4-4-4---|-0-0-2-2-4-4-4-|

REFREIN A
D|-------|-------|------|-------|-------|-------|-------|-------|-------|-------|
G|-------|-------|------|-------|-------|-------|-------|-------|-------|-------|
A|---2-2-|-------|---2~-|-------|---2-2-|-------|-------|-------|-------|-------|
E|-0-----|-2-4-2-|-0----|-2-2-2-|-0-----|-2-4-2-|-0-0-2-|-4-4-2-|-0-0-2-|-4~--4-|

COUPLET
D|--------|-------|--------|----|
G|--------|-------|--------|----|
A|--------|-----2-|--------|----|
E|-0~--2~-|-4~----|-0~--2~-|-4~-|

D|---------|---------|---------|---------|
G|---------|---------|---------|---------|
A|---------|---------|---------|---------|
E|-0-0-2-2-|-4-4-4-4-|-0-0-2-2-|-4-4-4-2-|


BRIDGE
D|---------------|---------------|-----------------|---------------|
G|---------------|---------------|-----------------|---------------|
A|-------------2-|---------------|---------------2-|---------------|
E|-0-0-2-2-4-4---|-0-0-2-2-4-4-2-|-0-0-2-2-4-4-4---|-0-0-2-2-4-4-4-|

[ Tab from: http://www.guitartabs.cc/tabs/d/dc_talk/in_the_light_btab_ver_3.html ]
REFREIN A
D|-------|-------|------|-------|-------|-------|-------|-------|-------|-------|
G|-------|-------|------|-------|-------|-------|-------|-------|-------|-------|
A|---2-2-|-------|---2~-|-------|---2-2-|-------|-------|-------|-------|-------|
E|-0-----|-2-4-2-|-0----|-2-2-2-|-0-----|-2-4-2-|-0-0-2-|-4-4-2-|-0-0-2-|-4~--4-|

D|------|-----|------|-----|------|-----|------------|
G|------|-----|------|-----|------|-----|------|-----|
A|------|-----|----2-|-----|-4--6-|-----|----2-|-----|
E|-0--2-|--4--|-0----|--2--|------|--4--|-0----|--2--|


D|---------|---------|---------|---------|---------|---------|---------|---------|
G|---------|---------|---------|---------|---6-----|---------|---------|---------|
A|---2---4-|---6---6-|---2-2-2-|---4---4-|-4---6-6-|---6---6-|---2-2-2-|---4---4-|
E|-0---2---|-4---4---|-0-------|-2---2---|---------|-4---4---|-0-------|-2---2---|


BRIDGE
D|---------------|---------------|-----------------|---------------|
G|---------------|---------------|-----------------|---------------|
A|-------------2-|---------------|---------------2-|---------------|
E|-0-0-2-2-4-4---|-0-0-2-2-4-4-2-|-0-0-2-2-4-4-4---|-0-0-2-2-4-4-4-|


REFREIN A
D|-------|-------|------|-------|-------|-------|-------|-------|-------|----|
G|-------|-------|------|-------|-------|-------|-------|-------|-------|----|
A|---2-2-|-------|---2~-|-------|---2-2-|-------|-------|-------|-------|----|
E|-0-----|-2-4-2-|-0----|-2-2-2-|-0-----|-2-4-2-|-0-0-2-|-4-4-2-|-0-0-2-|-4~-|

REFREIN B
D|---|----------|----------|----------|------------|----------|----------|----------|----------|
G|---|----------|----------|----------|------------|----------|----------|----------|----------|
A|---|------2-2-|----------|------2-2-|------4---4-|------2-2-|--------6-|--------4-|--------6-|
E|-2-|-000------|-222--4-4-|-000------|-222----2---|-000------|-222--4---|-000--2---|-444--4---|

OUTRO
D|------------|------------|
G|------------|------------|
A|------------|------------|
E|-00-0--22-2-|-44-4--44-4-|

Comments? Mail me at Stakken_2000@yahoo.com
Comments