Dc Talk - In The Light Chords & Tabs

 

In The Light Chords & Tabs

Dc Talk Chords & Tabs

Version: 1 Type: Bass Tab 0 ratings
1 star 2 stars 3 stars 4 stars 5 stars
comments

In The Light Bass Tab

   
In The Light
by: DCTalk
CD: Jesus Freak
Chorus corrected by: "Weasel W" 

Don't play during intro

1st verse
G
D
A                
E--0----2----4--------0----2----4--------0----2----4--------0----2----4--------

BRIDGE
G
D
A
E--0-0-0-0-2-2-2-2-4-4-4-4-4-4-4-4-0-0-0-0-2-2-2-2-4-4-4-4-4-4-4-4-0-0-0-0-2-2-

G
D
A
E--2-2-2-2-2-2-4-4-4-4-0-0-0-0-2-2-2-2-4-4-4-4-4-4-4-4-
[ Tab from: http://www.guitartabs.cc/tabs/d/dc_talk/in_the_light_btab.html ]
Chorus:
G-----------------
D-----------------
A---22------------
E-00--224444------


G-----------------
D-----------------
A---22------------
E-00--2222--------   then repeat the previous. 


The rest of the song is mostly the same you just play the same three frets
more or less----play with the CD a couple of times and you''ll get it this a
very easy song.
I know this may be an easy way of playing this song   if it is please mail
corrections to this site and correct it     thanks

tabbed by   Jeremy Hilterbrand


Comments