Days Of The New - Whimsical Chords & Tabs

 

Whimsical Chords & Tabs

Days Of The New Chords & Tabs

Version: 1 Type: Tab 0 ratings
1 star 2 stars 3 stars 4 stars 5 stars
comments

Whimsical Tab

   
Whimsical-Days of the New

TUNING: Bb Bb Db Gb Bb Db

Chords for chorus:
       low to high
       Bm9:x00220
       G/D:x30000
        E7:x02100
        D6:x34200

tempo=72

Rythm guitar:
E |--------------------------|-------------------------------|
B |---------3-2-3---2-0--0-2-|-------------------------------|
G |-2-4----------------------|-0-2-----2---------2-------2---|
D |-------0------------------|-0-----4-----4---------4-------|
A |-----0--------------------|-----3-----3-----3---3---3-----|
E |-0------------------------|-------------------------------|

                                           lead starts here
E |--------------------------|-------------------------------|
B |---------3-2-3---2230--0--|-0-----------------------------|
G |-2-4----------------------|-2-----------------------------|
D |-------0-----------------4|-4-----------------------------|
A |-----0--------------------|-3-----------------------------|
E |-0------------------------|-------------------------------|

E |------0-------0--|------0------4----|
B |-----2-------0---|-----0-----0--0---|
G |----4-------0----|----1-------2--2--|
D |---4-------0-----|---2------------4-|
A |--0-------0------|--0-------0-------|
E |-0-------0-------|-0-------0--------|

E |------0-------0--|-----2------------|
B |-----2-------0---|---0--0------0----|
G |----4-------0----|----1------2------|
D |---4-------0-----|------------4-----|
A |--0-------0------|--0-------0-------|
E |-0-------0-------|-0-------0--------|

Lead Guitar:
E |--------------------------|-------------------------------|
B |--------7-7-8-7-6-6-7-6---|-------------------------------|
G |------------------------7-|-------------------------------|
D |--------------------------|-9-----7-9-9-------------------|
A |--------------------------|-------------------------------|
E |--------------------------|-------------------------------|
[ Tab from: http://www.guitartabs.cc/tabs/d/days_of_the_new/whimsical_tab.html ]
E |--------------------------|-14-12--12-11--11-9--9-----9---|
B |--------------------------|-----------------------12----10|
G |--------------------------|-------------------------------|
D |-----9--------------------|-------------------------------|
A |-5-7----------------------|-------------------------------|
E |--------------------------|-------------------------------|

E |-9-------9-------9--------|
B |---10------10-------------|
G |------11------11----------|
D |--------------------------|
A |--------------------------|
E |--------------------------|

Verse:
       play this 9 times               then play this
E |----------------------------|----------------------------|
B |----------------------------|----------------------------|
G |----------------------------|----------------------------|
D |-----0------2------0------4-|-----0------2---------------|
A |---0------0------0------0---|---0------0------0----------|
E |-0------3------0------5-----|-0------3------0---0-3-0-3--|

pre-chorus:

E |-------------------|-------------------|
B |-------------------|-------------------|
G |-4---2---1---------|-4---2---1---------|
D |--0---0---0--0-2-4-|--0---0---0--0---0-|
A |---0---0---0-------|---0---0---0---0---|
E |-------------------|-------------------|
    is  it  me          do you want me...

E |-------------------|--------------------------|
B |-------------------|--------------------------|
G |-4---2---1---------|--------------------------|
D |--0---0---0--2---4-|-------2-----0------------|
A |---0---0---0---0---|-0---0---0-----0---2-3-2--|
E |-------------------|---0-------0-----0--------|

E |-------------------|-------------------|
B |-------------------|-------------------|
G |-4---2---1---------|-4---2---1---------|
D |--0---0---0--0-2-4-|--0---0---0--0---0-|
A |---0---0---0-------|---0---0---0---0---|
E |-------------------|-------------------|

E |-------------------|------------------------|
B |-------------------|------------------------|
G |-4---2---1---------|------------------------|
D |--0---0---0--2-----|-4-----2-----0----------|
A |---0---0---0---0---|---0-----0-----0---2----|
E |-----------------0-|-----0-----0-----0------|

Chorus:(Bm9--G/D--E7--D6)

Bm9                  G/D
   Im not afraid to live
E7                D6
   not afraid to die  ECT...

Well Thats as extravagant as I'm going to get with this its my first attempt at tabbing. Questions or comments?
E-mail me at greenhell@mailcity.com

Thanx!
      ~BOB~
Comments