Days Of The New - Shelf In The Room Chords & Tabs

 

Shelf In The Room Chords & Tabs

Days Of The New Chords & Tabs

Version: 4 Type: Tab

Shelf In The Room Tab

Notation
 /  slide up
 \  slide down
X^X bend note then release

Solo
Eb |---------------------------------------------------------------------|
Bb |-------------------------------------------------------------6-6-6/--|
Gb |------------2-5------------------------------------------------------|
Db |--------3-5------------3-5-6-3-5p3h5------5p3---------/5-------------|
Ab |----3/5------------3/5--------------5--------5p3---------8p5---------|
Db |------------------------------------------------5p3------------------|

[ Tab from: http://www.guitartabs.cc/tabs/d/days_of_the_new/shelf_in_the_room_tab_ver_4.html ]
Eb |---------------------------------------------------------------------|
Bb |----5h6----5h6--------------------------6-8-8^9^8-8p6---6------------|
Gb |--------7------7-7-7p5---5-7--------5-7---------------7---7/5/7~~/---|
Db |-----------------------7-----5--5-7----------------------------------|
Ab |---------------------------------------------------------------------|
Db |---------------------------------------------------------------------|

This is my first tab ever so let me know what you think!!!
BDSurace@gmail.com