Days Of The New - Days Of The New (album) Chords & Tabs

 

Days Of The New (album) Chords & Tabs

Days Of The New Chords & Tabs

Version: 1 Type: Tab 0 ratings
1 star 2 stars 3 stars 4 stars 5 stars
comments

Days Of The New (album) Tab

   
----------------------------------PLEASE NOTE--------------------------------#
#This file is the author's own work and represents their interpretation of the#
#song. You may only use this file for private study, scholarship, or research.#
#-----------------------------------------------------------------------------#

Date: Tue, 28 Apr 1998 14:36:02 -0600
From: Toby Biggs 
Subject: d/days_of_the_new/days_of_the_new_album.tab


DAYS OF THE NEW Album Tab Book
Compiled by Toby Biggs
Tabbed By:

1.  Shelf in the RoomSteve Becker &
Chris York
2.  Touch, Peel and StandGary Lick
solo done by:Bill Holmes
3.  Face of the EarthToby Biggs
4.  SolitudeJonathan Bienert
5.  The Down TownSteve Becker
6.  What's Left for Me?------------
7.  FreakToby Biggs &
Jonathan Bienert
8.  Now------------
9.  Whimsical------------
10. Where I standToby Biggs
11. How Do You Know You?
12. Cling------------


*-*-*-*-*-*-*-*-*-*-*-*-*-*-*-*-*-*-*-*-*-*-*-*-*-*-*-*-*-*-*-*-*-*-*-*-*
SHELF IN THE ROOM
*-*-*-*-*-*-*-*-*-*-*-*-*-*-*-*-*-*-*-*-*-*-*-*-*-*-*-*-*-*-*-*-*-*-*-*-*

"Shelf in the Room" by Days of the New
Written by Travis Meeks
Transcribed by Steve Becker and Chris York
Tabbed by Steve Becker
Solo tabbed by: Toby Biggs
12/15/97

Tuning: Db-Ab-Db-Gb-Bb-Db

-----------------------------------|
-----------------------------------|
---2-----2-------4-----4---5^4---4-|     Part 'A'
-----0-----0-------0---------------|
-----------------------------------|
-0-----3-----3/5-----5---5-----5---|


-----------------------------------|
-----------------------------------|
---2-----2-------4-----------------|
-----0-----0-------0---0-----0---0-|     Part 'B'
-----------------------------------|
-0-----3-----3/5-----5---5-5---3---|

--------0--------------------------|
--3------3-----0-------------------|
----2-------------4----4----5^4---4|Part 'B(b)'
--------------------------------0--|
-----------------------------------|
-0-----3----3/5-----5-----5--------|


-----------------------------------|
-3-----3---3---0-------------------|
-2-----2---2---4-------------------|
-0-----0---0---0-------------0---0-|     Part 'C'
-0-----0---0---5-------------------|
-0-----3---3---5-----5-5-5-5---3---|


-----------------------------------|
-----------------------------------|
---2---5-------4-----4-----4---4---|     Part 'D'
-0---0---0-0-0---0-0---0-0---0-----|
-----------------------------------|
-----------------------------------|


-------------------5-----5---5-----|
-2-----2---2---0---0-----0---0-----|
-3-----3---3---4---4-----4---4-----|     'CHORDS'
-0-----0---0---0---0-----0---0-----|
-0-----0---0---5---5-----5---5-----|
-0-----3---3---5---5-----5---5-----|


Order:

   A A A B       Intro
   Bb Bb Bb C      "
   A A A B       Verse
   D D D C       Chorus

 (-B B A B       Verse
 ( A A A C         "
 ( CHORDS        Chorus
 ( CHORDS          "
 ( D D D D       Break
 (-A B A C

 (-B B A B       Verse 
 ( A A A C         "
 ( CHORDS        Chorus
 ( CHORDS          "
 ( CHORDS        Solo
 ( D D D D       Break
 (-A B A C       Verse

   A A A         Outro

I separated the parts above to show how the song's parts are arranged. 
If you look, you will notice that the middle two sections are the same.  
Also, the music under the first verse and chorus is NOT the same as the 
rest of the verses and choruses.  Very very sneaky!!! :) (And he almost 
got away with it!!!)

Enjoy! :)!

P.S.  If you want to tune your guitar to Db-Ab-Db-Gb-Bb-Db,
then one of the chords would be played (550407) instead of (550405).

Also, for part 'D', there are some different things you can play that 
still fit.  Here's my favorite:

-----------------------------------|
-----------------------------------|
---2---5---2-4-------4---5-4---4---|
-0---0---0-----0-0-0---0-----0-----|
-----------------------------------|
-----------------------------------|

SOLO:

-------------|------------|--------|---------------|---------|
-------------|------------|--------|---------------|---------|
-----------5-|------------|--------|---------------|---------|
------3-5/7--|----3-5/7-5-|-3p0-3--|-3p0-----------|-3/5-3-0-|
--3-5--------|-3-5--------|------5-|----3p0--------|---------|
-------------|------------|--------|-------3/5-3-0-|---------|

-------|------------------|-------------------------|---------------------------|
-10-10-|-10/--5h6---5h6---|-------------------------|-10-10-10-12~--------------|
-10-10-|-10/--5--7--5---7-|-7-7p5---5---------------|-10-10-10-12~-10-10h12-10--|
-------|------------------|-------7---7-3-5-3-3h5-3-|-------------------------10|
-------|------------------|-------------------------|---------------------------|
-------|------------------|-------------------------|---------------------------|






*-*-*-*-*-*-*-*-*-*-*-*-*-*-*-*-*-*-*-*-*-*-*-*-*-*-*-*-*-*-*-*-*-*-*-*-*
TOUCH, PEEL AND STAND
*-*-*-*-*-*-*-*-*-*-*-*-*-*-*-*-*-*-*-*-*-*-*-*-*-*-*-*-*-*-*-*-*-*-*-*-*

Song: Touch, Peel, and Stand 
Band: Days of The New
Album: Days of the New (1997)
Tabbed by: Gary Lick (garylick@magnolia.net)
Solo Tabbed by: "Bill Holmes" 

**All Guitars tuned to Drop-D tuning and a half-step

Intro/Chorus

e------------------------------------------------------------------------
B------------------------------------------------------------------------
G--5/7---7---5/7-7----7--------------------------------------------------
D--5/7---7---5/7-7----7-----3/5--5-5--5--3--5--5-5------3-3-3-3-3-3-3-3--
A--3/5---5---3/5-5----5-----3/5--5-5--5--3--5--5-5--0/3-3-3-3-3-3-3-3-3--
D------0---0--------0----0--3/5--5-5--5--3--5--5-5--0/3-3-3-3-3-3-3-3-3--
                                        _________________
                                        |               |This may be played
                                        |               |2 times
e----------------------------------------------------------x-x-x-x------
B----------------------------------------------------------x-x-x-x------
G----------------------------------------4/5-5-5-----------x-x-x-x------
D--3-3-3--3/5-5-5-5-3-0---0----5-3-0-----4/5-5-5--5-3-0----x-x-x-x------
A--3-3-3--3/5-5-5-5-3-0-0-0-0--5-3-0-0---2/3-3-3--5-3-0----x-x-x-x------
D--3-3-3--3/5-5-5-5-3-0-0-0-0--5-3-0-0------------5-3-0----x-x-x-x------

Verse (bass first)
------------------
G------------------------------------------------------------------
D------------------------------------------------------------------
A-------------------------------------2/3-3---2-3------------------
D--3/5\3-0-0-3/5-0-0-3-5-6-5--3--3-5--------0-----0-0-3-5--6--5--3-

Verse (Guitar)(after the first bass riff)
e-------------------------------------
B-------------------------------------   There are variations here
G-------------------------------------   That I can't remember. Sorry,
D--3--5-0--0-3-5-0--0-3--5--6--5--3---   I am doing this from memory.
A--3--5-0--0-3-5-0--0-3--5--6--5--3---   basically, just follow the
D--3--5-0--0-3-5-0--0-3--5--6--5--3---   above bass line.....

Chorus
------
The same as the intro.!!

Bridge "ooohhhhh"
------
   |||     REPEAT THIS TWO TIMES           |||   this changes!!!   
e-----------------------------------------------|-------------
B-----------------------------------------------|-------------
G-----------------------------------------------|-------------
D--3/5-3-0--3/5-0--3/5-5-3-0--5/6-5---3/5-3-----|-------------
A--3/5-3-0--3/5-0--3/5-5-3-0--5/6-5-0-3/5-3-0-0-|------3"""---
D--3/5-3-0--3/5-0--3/5-5-3-0--5/6-5-0-3/5-3-0-0-|-3/5---------

This comes on the second time of the above (instead of that last measure)

e--------------------|    Then the solo comes in. After that just listen
B--------------------|    for the changes.  
G--------------------|
D--------------------|
A-0-0-3-5--6--5--3---|
D-0-0-3-5--6--5--3---|

SOLO:

/ slide up
\ slide down
p pull off
~ vibrato
**These are not time measures.  I just broke the solo up
  into the steps that I learned them in.

|--------------------|
|----10-------10-----|
|----10-------10-----|
|-12----10-12----12\-|
|--------------------|
|--------------------|

|-----------------------------------|
|-10-12-12-12b13-12-10-12-10~~~-10\-|
|-10-12-12-12b13-12----12-10~~~-10\-|
|-----------------------------------|
|-----------------------------------|
|-----------------------------------|

|--------------------------------|
|-13-15-15-15\13-13----13-10-10\-|
|-12-14-14-14\12-12p10-12-10-10\-|
|--------------------------------|
|--------------------------------|
|--------------------------------|

|-----------------------------|
|-------10-12-------10~~~-10\-|
|-------10-12-12b13-10~~~-10\-|
|-12-12-----------------------|
|-----------------------------|
|-----------------------------|

|-13p10----13----10-15p10----13----10-|
|-------13----13----------13----13----|
|-------------------------------------|
|-------------------------------------|
|-------------------------------------|
|-------------------------------------|

|-------------------------------------|
|-13p10----13----10-15p10----13----10-|
|-------13----13----------13----13----|
|-------------------------------------|
|-------------------------------------|
|-------------------------------------|

|----------------------------------|
|----------------------------------|
|-12p10----12----10-13p12p10-------|
|-------12----12-------------12-10-|
|----------------------------------|
|----------------------------------|

|------------------------------------------|
|------------------------------------------|
|----------------5-7-5---7-5---------------|
|------------5/7-------7-----7-----6b7-X---|
|-12-11p10\8-------------------5-5-----X---|
|------------------------------------------|

|---------------------------|
|---------------------------|
|-5/7-7\5-7/10-10\7-5/7-5/7-|
|---------------------------|
|-3/5-5\3-5/8--8-\5-3/5-3/5-|
|---------------------------|

|---------------------------------|
|---8-----10------13-------15-----|
|---------------------------------|
|-5---5/7----7/10----10/12----12\-|
|---------------------------------|
|---------------------------------|

|-------------------------------------------------|
|-12-12-12-10-10-10-------------------------10-10-|
|-12-12-12-10-10-10-12-12-12-10-10-10-12-12-10-10-| x2
|-------------------12-12-12-10-10-10-12-12-------|
|-------------------------------------------------|
|-------------------------------------------------|

|----------------------------------------------|
|-12-12-12-10-10-10----------10-10-10----------|
|-12-12-12-10-10-10-12-12-12-10-10-10-12-12-10-|
|-------------------12-12-12----------12-12-10-|
|----------------------------------------------|
|----------------------------------------------|

|-------10-10-------10-10-------10-10-------10-10-|
|-13b15-------13b15-------13b15-------13b15-------|
|-------------------------------------------------|
|-------------------------------------------------|
|-------------------------------------------------|
|-------------------------------------------------|

|-------10-------10-|
|-13b15----13b15----|
|-------------------|
|-------------------|
|-------------------|
|-------------------|





*-*-*-*-*-*-*-*-*-*-*-*-*-*-*-*-*-*-*-*-*-*-*-*-*-*-*-*-*-*-*-*-*-*-*-*-*
FACE OF THE EARTH
*-*-*-*-*-*-*-*-*-*-*-*-*-*-*-*-*-*-*-*-*-*-*-*-*-*-*-*-*-*-*-*-*-*-*-*-*

Song: Face of the Earth 
Band: Days of The New
Album: Days of the New (1997)
Tabbed by: Toby Biggs (tbiggs@rockyview.ab.ca)

Double dropped D tuning and tuned down half a step 
Db-Ab-Db-Gb-Bb-Db

I'll give you the basic elements of the song and let
you figure out the order, it's not too tough once you
learn these

   
d---X--X--X--0---|--------------------------------|
b---0--0--0--3---|------3-1h3----1---1-1-----1----|
g---0--0--0--2---|------2-0h2----0---0---0---0----|
d---0--0--0--0---|------------------------------0-|
a---0--0--0--0---|----0------------3-------3------|
D---0--0--0--0---|--0----------0------------------|

d-------------------------|-----------------------|
b-----3-1h3---1---1-1--1--|---3-1h3--1--1-1---1---|
g-----2-0h2---0---0--0-0--|---2-0h2--0--0--2--0---|
d-----------------------0-|---------------------0-|
a---0------------3----3---|--0---------3-----3----|
D-0---------0-------------|-0------0--------------|

d---------------------------|
b----3-1h3---1---1-1----1---|
g----2-0h2---0---0--0---0---|
d-------------------------0-| repeat this (minus beginning)
a--0-----------3-----3/5----|
D-0--------0----------------|

Then...
/ d-------------------------|----------------------------|
| b-------------------------|----------------------------|
| g-------------------------|-------------------------1--|
| d---0-0---0-0---0-0---0-0-|--0-0---0-0---0-0---0------3|
| a--0-0-0-0-0-0-0-0-0-0-0-0|-0-0-0-0-0-0-0-0-0-0--------|
| D-0-----3-----5-----5-----|0-----3------5-----5--------|
|
| d-------------------------|----------------------------|
| b-------------------------|----------------------------|
| g-------------------------|---------------------1------|
| d-------------------------|--00-00-00-00-00-00-0-3-----|
| a-------------------------|-0--0--0--0--0--0--0--------|
\ D------------------------5|0---------------------------|
  crescendo
and increase tone

The majority of the song is basicly like this

/ d------------------------------|          |------|
| b------------------------------|          |------|
| g------------------------------|          |---1--|
| d---0-0----0-0----0-0----0-0---|          |----3-|
| a--0-0-0--0-0-0--0-0-0--0-0-0--|sometimes |--0---|
| D-0------0------0------0-------|    |-0----|
|
| d------------------------------|
| b-----1h3---1h3---1h3---1h3----|
| g-----0h2---0h2---0h2---0h2----|
| d------------------------------|
| a------------------------------|
\ D------------------------------|


Then at the end they go

d--------------------------------|
b--------------------------------|
g--------------------------------|
d--0---0-0-12--0-0-12-0-0-10-0-0-|repeat a few times then
a--0---0-0-12--0-0-12-0-0-10-0-0-|
D--0---0-0-12--0-0-12-0-0-10-0-0-|

d---------------|
b---------------|
g---------------|
d--11-0-0-8-0-0-|
a--11-0-0-8-0-0-|
D--11-0-0-8-0-0-|

and back to the beginning and your done.



*-*-*-*-*-*-*-*-*-*-*-*-*-*-*-*-*-*-*-*-*-*-*-*-*-*-*-*-*-*-*-*-*-*-*-*-*
SOLITUDE
*-*-*-*-*-*-*-*-*-*-*-*-*-*-*-*-*-*-*-*-*-*-*-*-*-*-*-*-*-*-*-*-*-*-*-*-*

Song: Solitude
Band: Days of the New
Album: Days of the New (1997)
Tabbed by: Jonathan Bienert

These are the basic progressions repeated throughout the song,
it's not hard to figure out.

Tuned down half a step, Eadgbe



e-----------------------------------|
b-----0------0-------0--------------|
g----4-4----4-4-----4-4-----4---4---|
d---2---2--2---0---2---2---2---2----|
a-----------------3-------2---3-----|
E-0------3--------------------------|

/ e----------------------------------|-------------------------|
| b------0------0-----0------0-----0-|-----0-----0-----0-----0-|
| g----------------------------------|-------------------------|
| d----2------2-----2------2-----2---|---2-----2-----2-----2---|
| a----------------------0-----2-----|-------------1-----2-----|
| E--0-----2------3------------------|-0-----3-----------------|
|
| e-------------------------|-------------------|
| b-----0-----0-----0-----0-|-----0-----0-------|
| g-------------------------|--------------0--0-|
| d---2-----2-----2-----2---|---2-----0----2--2-|
| a-------------0-----2-----|--------------3--2-|
\ E-0-----3-----------------|-0-----3------0--0-|
[ Tab from: http://www.guitartabs.cc/tabs/d/days_of_the_new/days_of_the_new_album_tab.html ]
e------------------------------------------------|
b-----2-----0-----4------------------------------|
g----2-2---2-2---2-2-----------------------------|
d---2---2-2---2-2---2----------------------------|
a--0-----0-----0---------------------------------|
E------------------------------------------------|


*-*-*-*-*-*-*-*-*-*-*-*-*-*-*-*-*-*-*-*-*-*-*-*-*-*-*-*-*-*-*-*-*-*-*-*-*
THE DOWN TOWN
*-*-*-*-*-*-*-*-*-*-*-*-*-*-*-*-*-*-*-*-*-*-*-*-*-*-*-*-*-*-*-*-*-*-*-*-*

Song: The Down Town
Band: Days of the New
Album: Days of the New (1997)
Tabbed by: Steve Becker 


Chords used:
  A         (002220)
  E         (022100) 
  Eadd9?    (022130)
  Aadd?     (577600)
  Gadd?     (355400)
  Fadd?     (133200)

To make this easier, I'll just call the last 3 chords up there A?,G?,and 
F? and use p's for pauses..

(Intro)
Play this part 4 times.  At the end, strum an open E chord instead of 
playing the Eadd9..

A                   A       
-------------------|-------------------|
-------------------|-------------------|
---2---------------|---2---------------|  
-----2---2-------2-|-----2---2-------2-|
-0-----------------|-0-----------------|
-------0---0-3b4---|-------0---0-3b4---|


 Fadd?       Eadd9
-------------------0-------------------|
-------0-------------0-----3-----------|
-----2---2-------1-----0h1-------------|
---3-------3---2-------------2---------|
---------------------------------------|
-1-----------0-------------------------|


 A?  G?  A?  G?  A?  G?F?      G?
-0-p-0-0-0-p-0-0-0-p-0-0-p-0-0-0-|
-0-p-0-0-0-p-0-0-0-p-0-0-p-0-0-0-|
-6-p-4-4-6-p-4-4-6-p-4-2-p-2-2-4-|  Play this
-7-p-5-5-7-p-5-5-7-p-5-3-p-3-3-5-|    twice
-7-p-5-5-7-p-5-5-7-p-5-3-p-3-3-5-|
-5-p-3-3-5-p-3-3-5-p-3-1-p-1-1-3-|

(Verse)
 A?  G?  A?  G?F?              G?
-0-p-0-0-0-p-0-0-p-0-0-0-0-0-0-0-|
-0-p-0-0-0-p-0-0-p-0-0-0-0-0-0-0-|
-6-p-4-4-6-p-4-2-p-2-2-2-2-2-2-4-|   Play this
-7-p-5-5-7-p-5-3-p-3-3-3-3-3-3-5-|     four x
-7-p-5-5-7-p-5-3-p-3-3-3-3-3-3-5-|
-5-p-3-3-5-p-3-1-p-1-1-1-1-1-1-3-|

(Chorus)
 A?      G?      E     E+9?
-0-0-0-0-0-0-0-0-0-0-0-0-0-0-0-0-|
-0-0-0-0-0-0-0-0-0-0-0-3-3-3-3-3-|
-6-6-6-6-4-4-4-4-1-1-1-1-1-1-1-1-|
-7-7-7-7-5-5-5-5-2-2-2-2-2-2-2-2-|
-7-7-7-7-5-5-5-5-2-2-2-2-2-2-2-2-|
-5-5-5-5-3-3-3-3-0-0-0-0-0-0-0-0-|

 A?      G?      F?
-0-0-0-0-0-0-0-0-0-0-0-0-0-0-0-p-|
-0-0-0-0-0-0-0-0-0-0-0-0-0-0-0-p-|
-6-6-6-6-4-4-4-4-2-2-2-2-2-2-2-p-|
-7-7-7-7-5-5-5-5-3-3-3-3-3-3-3-p-|
-7-7-7-7-5-5-5-5-3-3-3-3-3-3-3-p-|
-5-5-5-5-3-3-3-3-1-1-1-1-1-1-1-p-|

Back to Intro. Play only 2nd half..

2nd Verse

2nd Chorus- at end, play F? for 2 extra measures, end on E

Back to Intro. Play only 1st half, then back and forth between
G? and F? for 8 measures

3rd Chorus

End is 1st half of chorus, then F? till ending on E

                               That's It!! :)


Tehcnical stuff:
It may be easier (if your hands are big enough) to use your thumb
for the bass notes on the low string.  Doing this gave me the idea that 
if you don't play the bass note, all you have to do is slide an open E 
chord back and forth, which is fine if you're playing in a band with a 
bass.  Have Fun :)!!




*-*-*-*-*-*-*-*-*-*-*-*-*-*-*-*-*-*-*-*-*-*-*-*-*-*-*-*-*-*-*-*-*-*-*-*-*
FREAK
*-*-*-*-*-*-*-*-*-*-*-*-*-*-*-*-*-*-*-*-*-*-*-*-*-*-*-*-*-*-*-*-*-*-*-*-*

Song: Freak 
Band: Days of The New
Album: Days of the New (1997)
Tabbed by: Toby Biggs (tbiggs@rockyview.ab.ca)&
    Jonathan Bienert

Double dropped D tuning D-A-D-G-B-D
Tuned down half a step.

I will completely tab out the first minute or so until the song 
picks up.  After that I'll refer to figures that preceed the lyrics.
Hopefully it should be pretty easy to understand, and after you
learn the beginning, you've learned the majority of the song.
I don't really feel like doing the solo, but might add it on later.

****************************************

GUITAR 1
d---------------|--------------|---------------|--------------|
b-------3-------|--------------|------3--------|--------------|
g---2-----2---2-|-----2------2-|---2-----2---2-|-----2------2-|
d-----0-----0---|---0------0---|----0-----0----|---0------0---|
a---------------|--------------|---------------|--------------|
D-0-------------|-3------5-----|-0-------------|-3----3/5-----|


GUITAR 2
d---------------|--------------|---------------|--------------|
b---------------|--------------|---------------|--------------|
g---------------|--------------|---------------|--------------|
d---------------|--------------|---------------|--------------|
a-3h5-----------|--------------|-3-5-----------|-5---3--0-----|
D---------------|--------------|---------------|----------5-0-|

****************************************

GUITAR 1
d--------------|-----------------|-------------------|
b-------3------|-----3-----3-----|-------------------|
g---2-----2--2-|---2-----2---2---|----------------2--|
d----0-----0---|-2-----1-------1-|---0--0--0--0--0---|
a--------------|-----------------|--0--0--0--0--0----|
D-0------------|-----------------|-5--6--3--5--0-----|

GUITAR 2
d--------------|-----------------|-------------------|
b--------------|-----------------|-------------------|
g--------------|-----------------|-------------------|
d--------------|-----------------|-------------------|
a--------------|-----------------|-5-3-3-5-3-3-5-3-3-|
D--------------|-----------------|-------------------|

****************************************

GUITAR 1
d-----------------------|----------------------|-----------------|
b-----------------------|----------------------|-----------------|
g-----------------------|--------------------2-|-----------------|
d----0---0---0---0---0--|---0---0---0---0---0--|---0---0---0---0-|
a---0---0---0---0---0-3-|--0---0---0---0---0---|--0---0---0---0--|
D--5---6---3---5---0----|-5---6---3---5---0----|-5---6---3---5---|

GUITAR 2
d-----------------------|----------------------|-----------------|
b-----------------------|----------------------|-----------------|
g-----------------------|----------------------|-----------------|
d-----------------------|----------------------|-----------------|
a-5-5-3-5-5-3-5-5-3-5-5-|-5-5-3-5-5-3-5-5-3-5-5|-5-5-3-5-5-3-5-5-|
D-----------------------|----------------------|-----------------|

****************************************

GUITAR 1
d---------------|--------------|---------------|--------------|
b-------3-------|--------------|------3--------|--------------|
g---2-----2---2-|-----2------2-|---2-----2---2-|-----2-----2--|
d-----0-----0---|---0------0---|----0-----0----|---0------0---|
a---------------|--------------|---------------|--------------|
D-0-------------|-3------5-----|-0-------------|-3----3/5-----|

Watch the timeWait for me

GUITAR 2(harmonics)   7     12 
d---------------|--------------|---------------|------------X-|
b---------------|--------------|---------------|------x-------|
g---------------|--------------|---------------|--------------|
d---------------|--------------|---------------|--------------|
a---------------|--------------|---------------|--------------|
d---------------|--------------|---------------|--------------|

****************************************

GUITAR 1
d---------------|--------------|---------------|--------------|
b-------3-------|--------------|------3--------|------3---3---|
g---2-----2---2-|-----2------2-|---2-----2---2-|-----2---2-2--|
d-----0-----0---|---0------0---|----0-----0----|---2----1---1-|
a---------------|--------------|---------------|--------------|
D-0-------------|-3------5-----|-0-------------|--------------|

Patience isreality

GUITAR 2 
d---------------|--------------|---------------|--------------|
b---------------|--------------|---------------|--------------|
g---------------|--------------|---------------|--------------|
d---------------|--------------|---------------|--------------|
a---------------|--------------|---------------|--------------|
d---------------|--------------|---------------|--------------|


****************************************

GUITAR 1
d---------------|--------------|---------------|--------------|
b-------3-------|--------------|------3--------|--------------|
g---2-----2---2-|-----2------2-|---2-----2---2-|-----2-----2--|
d-----0-----0---|---0------0---|----0-----0----|---0------0---|
a---------------|--------------|---------------|--------------|
D-0-------------|-3------5-----|-0-------------|-3----3/5-----|

I don't knowHow it feels

GUITAR 2
d---------------|--------------|---------------|--------------|
b---------------|--------------|---------------|--------------|
g---------------|--------------|---------------|--------------|
d---------------|--------------|---------------|--------------|
a-3h5-----------|--------------|---------------|-5--3--0------|
d---------------|--------------|---------------|---------5--0-|

****************************************

d---------------|------------|----------------|----------------|
b------3--------|----3---3---|----------------|----------------|
g---2-----2---2-|---2---2-2--|---------------2|----------------|
d----0-----0----|-2----1---1-|--0--0--0--0--0-|--0--0--0--0--0-|
a---------------|------------|-0--0--0--0--0--|-0--0--0--0--0-3|
D-0-------------|------------|5--6--3--5--0---|5--6--3--5--0---|

No_____________________________________________________________

GUITAR 2 
d---------------|------------|---------------|-----------------|
b---------------|------------|---------------|-----------------|
g---------------|------------|---------------|-----------------|
d---------------|------------|---------------|-----------------|
a---------------|------------|---------------|-----------------|
d---------------|------------|---------------|-----------------|

****************************************

GUITAR 1
d----------------------|----------------------|-------------|
b----------------------|----------------------|-----3-------|
g--------------------2-|----------------------|--2----2---2-|
d---0---0---0---0---0--|---0---0---0---0------|----0----0---|
a--0---0---0---0---0---|--0---0---0---0-------|-------------|
D-5---6---3---5---0----|-5---6---3---5--------|-0-----------|

________________________________ face-------------

GUITAR 2
d-----------------------|---------------------|-------------|
b-----------------------|---------------------|-------------|
g-----------------------|---------------------|-------------|
d-----------------------|---------------------|-------------|
a-5-5-3-5-5-3-5-5-3-5-5-|-5-5-3-5-5-3-5-5-----|-------------|
D-----------------------|---------------------|-------------|


****************************************

GUITAR 1
d--------------|---------------|--------------|
b--------------|------3--------|--------------|
g-----2------2-|---2-----2---2-|-----2-----2--|
d---0------0---|----0-----0----|---0------0---|
a--------------|---------------|--------------|
D-3------5-----|-0-------------|-3----3/5-----|

(cont.) face------------------------

GUITAR 2
d--------------|---------------|--------------|
b--------------|---------------|--------------|
g--------------|---------------|--------------|
d-----3--0-----|---------------|--------------|
a-3h5------3---|---------------|-5--3--0------|
d--------------|---------------|---------5--0-|

****************************************

GUITAR 1
d---------------|--------------|---------------|--------------|
b-------3-------|----3---3-----|------3--------|----3----3----|
g---2-----2---2-|---2---2-3----|---2-----2---2-|---2----2-2---|
d-----0-----0---|--2---1---1---|----0-----0----|--2----1---1--|
a---------------|--------------|---------------|--------------|
D-0-------------|--------------|-0-------------|--------------|

(cont.) face----------------------------------(drums)

GUITAR 2
d---------------|--------------|---------------|--------------|
b---------------|--------------|---------------|--------------|
g---------------|--------------|---------------|--------------|
d---------------|--------------|---------------|--------------|
a-3h5-----------|--------------|---------------|-5--3--0------|
d---------------|--------------|---------------|---------5--0-|

***************************************


*-*-*-*-*-*-*-*-*-*-*-*-*-*-*-*-*-*
FIGURE 1 (the main one)
d---------------|--------------|---------------|--------------|
b-------3-------|--------------|------3--------|--------------|
g---2-----2---2-|-----2------2-|---2-----2---2-|-----2------2-|
d-----0-----0---|---0------0---|----0-----0----|---0------0---|
a---------------|--------------|---------------|--------------|
D-0-------------|-3------5-----|-0-------------|-3----3/5-----|

continued
d--------------|-----------------|
b-------3------|-----3-----3-----|
g---2-----2--2-|---2-----2---2---|
d----0-----0---|-2-----1-------1-|
a--------------|-----------------|
D-0------------|-----------------|

*-*-*-*-*-*-*-*-*-*-*-*-*-*-*-*-*-*-*

FIGURE 2 (usually follows figure 1)
d-----------------------|----------------------|
b-----------------------|----------------------|
g---------------------2-|----------------------|
d-----0--0---0---0---0--|---0---0---0---0---0--|
a---0---0---0---0---0---|--0---0---0---0---0-2-|
D--5---6---3---5---0----|-5---6---3---5---0----|

*-*-*-*-*-*-*-*-*-*-*-*-*-*-*-*-*-*-*

FIGURE 3 (chorus)
d----------------------------|
b----------------------------|
g----------------------------|
d--/666--3--0----/666--3--0--|
a--/666--3--0----/666--3--0--|
D--/666--3--0----/666--3--0--|

*-*-*-*-*-*-*-*-*-*-*-*-*-*-*-*-*-*-*

FIGURE 4 (solo type thing)
d--------------------------------------------
b--------------------------------------------
g--------------------------------------------
d--------------------------------------------
a--------------------------------------------
D--------------------------------------------

*-*-*-*-*-*-*-*-*-*-*-*-*-*-*-*-*-*-*

FIGURE 5 
d----------------------------|
b----------------------------|
g----------------------------|
d---00000-66666-55555-55555--|
a---00000-66666-55555-55555--|
D---00000-66666-55555-55555--|

*-*-*-*-*-*-*-*-*-*-*-*-*-*-*-*-*-*-*

FIGURE 6
d----------------------------|
b----------------------------|
g----------------------------|
d---66666-55555-33333-00-----|
a---66666-55555-33333-00-----|
D---66666-55555-33333-00-----|

*-*-*-*-*-*-*-*-*-*-*-*-*-*-*-*-*-*-*

FIGURE 7
GUITAR 2
d--------|----------------|---------------|
b-0h3----|----------------|---------------|
g--------|--5p4-2-4p3-0-2-|---------------|
d--------|----------------|-----3---------|
a--------|----------------|-3h5---5-3-5-3-|
d--------|----------------|---------------|


*-*-*-*-*-*-*-*-*-*-*-*-*-*-*-*-*-*-*-*-*-*-*-*-*-*-*-*-*-*-*-*-*-*-*-*-*
WHERE I STAND
*-*-*-*-*-*-*-*-*-*-*-*-*-*-*-*-*-*-*-*-*-*-*-*-*-*-*-*-*-*-*-*-*-*-*-*-*

Song: Where I Stand
Band: Days of The New
Album: Days of the New (1997)
Tabbed by: Toby Biggs (tbiggs@rockyview.ab.ca)

Double dropped D tuning and tuned down one half step

FIGURE #1

Guitar 1
Part 1    Part 2
d------------------|-----------------------|
b------------------|-----------------------|
g-------2----------|--------------2--------|
d--------3---------|----------------3------|
a-5-3h5----5-3-----|-3h5-3--5-3h5-----5--3-|
D------------------|-----------------------|

Guitar 2

d-------0-------0--|
b-------3-------3--|
g-------2-------2--|  repeat
d-------0-------0--|
a--3h5--5--3h5--5--| 
D------------------|

figure #1 x 4




right after that...

Guitar 2 goes
d-------0-------0--|
b-------3-------3--|
g-------0-------0--|  
d-------0-------0--|
a--3h5--5--3h5--5--| 
D------------------|
  
then...



FIGURE 2

Guitar 2 (/ means strum it a few times (listen to album))

     /////  ///  ////  ///    
d---0-----0-0--|-0----0-0-| -> -> 
b---3-----3/6--|-5----5/6-||
g---2-----2/5--|-4----4/5-||
d---0-----0-0--|-0----0-0-||
a---0-----0-0--|-0----0-0-||
D--------------|----------||
|
       \|/

    ///
sometimes he goes |-0-7--|
Comments