Days Away - The Regular G Chords & Tabs

 

The Regular G Chords & Tabs

Days Away Chords & Tabs

Version: 1 Type: Tab 0 ratings
1 star 2 stars 3 stars 4 stars 5 stars
comments

The Regular G Tab

GET DAYS AWAY INFO AT www.daysaway.net !!!

Song: The Regular G
Band: Days Away
Album: The Feel Of It
Tabbed by: Eric M. ( rufioyc@hotmail.com )

Here's a pretty simple and easy song to play by Days Away!
Not alot of ppl know about this band. You should check them
out and if you like this song check out my band Nobody Knew
at www.nobodyknew.tk Thanks and enjoy!


Intro:(x2) (exact strummming)
e|-3-3-3-3x---3-3-3-3-3-3-3-3-3-3-3-3x--3-3-3-3--3-3-3-3--|
B|-3-3-3-3x---3-3-3-3-3-3-3-3-3-3-3-3x--3-3-3-3--3-3-3-3--|
G|-0-0-0-0x---0-0-0-0-2-2-2-2-0-0-0-0x--0-0-0-0--2-2-2-2--|
D|-0-0-0-0x---0-0-0-0-0-0-0-0-2-2-2-2x--2-2-2-2--0-0-0-0--|
A|-2-2-2-2x---2-2-2-2-0-0-0-0-3-3-3-3x--3-3-3-3-----------|
E|-3-3-3-3x---3-3-3-3-2-2-2-2--------x--------------------|

The verse is the same chords just strummed a little differently. 
You should be able to figure it out pretty easily. (x4)

Chorus: (x1) (strumming not shown)
e|-3-----3-----3-----3-----3----3-------------|
B|-3-----3-----3-----3-----3----3-------------|
G|-0-----0-----0-----0-----0----2-------------|
D|-2-----2-----0-----2-----2---(0)-or-(2)-----|
A|-2-----3-----2-----2-----3------------------|
E|-0-----------3-----0------------------------|
[ Tab from: http://www.guitartabs.cc/tabs/d/days_away/the_regular_g_tab.html ]
Now repeat the intro part once and then the verse 
part 4 times.

Chorus: (x1) (strumming not shown)
e|-3-----3-----3-----3-----3----3-------------|
B|-3-----3-----3-----3-----3----3-------------|
G|-0-----0-----0-----0-----0----2-------------|
D|-2-----2-----0-----2-----2---(0)-or-(2)-----|
A|-2-----3-----2-----2-----3------------------|
E|-0-----------3-----0------------------------|

Now repeat the intro part but fade it into the bridege part...

Bridge: I'm not sure but I know it's something around this. Just
fool around with it.
e|-------------------| Repeat the 1st part a couple |--3-3-3-3-3--| 
B|-------------------| times and the start stumming |--3-3-3-3-3--|
G|-------------------| the next chord--->	    |--0-0-0-0-0--|
D|------0-0h2p0------|			       	    |--0-0-0-0-0--|
A|-------------------|				    |--2-2-2-2-2--|
E|--3-3--------------|				    |--3-3-3-3-3--|

The outro is just the verse part repeated 4 times again and then
end on  -3~-
	-3~-
	-0~-
	-0~-
	-2~-
	-3~-

And that's it! This tab was hard to get perfect cuz it's really 2 guitars playing
at the same time and sometimes one goes up while the other goes down but if you
play this with the song it should sound good. If you have any comments,
corrections or questions email me at rufioyc@hotmail.com
Comments