Dayglo Abortions - Proud To Be Canadian Chords & Tabs

 

Proud To Be Canadian Chords & Tabs

Dayglo Abortions Chords & Tabs

Version: 1 Type: Bass Tab 0 ratings
1 star 2 stars 3 stars 4 stars 5 stars
comments

Proud To Be Canadian Bass Tab

Tabbed by: "France"
email: big_j13_247@hotmail.com

Guitar Intro
Intro X1	Verse X10
G |-----|--------------------|
D-|-----|--------------------|
A-|5----|--------------5-----|
E-|--5--|--7-7-3-3-5-5--5----|

Bridge X1
D-|-----------|
A-|-----------|
E-|-7--3--5---|


Main Riff  X4 (PASS ME ANOTHER BEER!!!!!!!!!!!)
D-|------------------------|
A-|-------------------5----|
E-|-7-777-3-333-5-555----5-|


Riff 2  X5
D-|--------------------------------------|
A-|--------------------------------------|
E-|-3-3-3-3-3-3-3-3-7-7-7-7-7-7-7-7------|

Main Riff X4
Riff 2    X4
Main Riff X3

Bridge 2
D-|-----------------------|
A-|-----------------------|
E-|-7-777-3-333-5-5-------|

Riff 3 X3
D-|--------------|
A-|----------55--|
E-|-0-3-5-7-----7|
[ Tab from: http://www.guitartabs.cc/tabs/d/dayglo_abortions/proud_to_be_canadian_btab.html ]
Riff 4
D-|----------------------|
A-|----------55----------|
E-|-0-3-5-7-----7r-------|

Main Riff X3

Outro
D-|--------------------|
A-|--------------------|
E-|-7-777-3-333-5.-----|

Lyrics

Proud To Be CANADIAN:

i'm proud to be a canadian
pass me another beer
I'm proud to be a canadian
hold my seat while i take a piss

our prime minister sucks dog shit through his nose
his ex wife gets brown showers from mick jagger
the only reason we live in fucking igloos
is our governemnt makes a living licking shit holes

I'm proud to be a canadian
pass me another welfare check
I'm proud to be a canadian
hold my seat while i go out and cash it

I'm proud to be a canadian
Pass me another eskimo
I'm proud to be a canadian
hold my seat while i fuck her up the asshole
Comments