Day Of Fire - Detainer Chords & Tabs

 

Detainer Chords & Tabs

Day Of Fire Chords & Tabs

Version: 1 Type: Bass Tab

Detainer Bass Tab

Band- Day of Fire
Song- Detainer

Riff 1
||----------||
||----------||
||----------||
||-22203330-|| 16 Times

Chorus
||---------------------------------|---------------------------------||
||---------------------------------|---------------------------------||
||-------------------------4-4-4-4-|-------------------------4-3-2-0-||
||-2-2-2-2-0-0-0-0-5-5-5-5---------|-2-2-2-2-0-0-0-0-5-5-5-5---------||

Riff 1
||----------||
||----------||
||----------||
||-22203330-|| 10 Times


Chorus
||---------------------------------|---------------------------------||
||---------------------------------|---------------------------------||
||-------------------------4-4-4-4-|-------------------------4-3-2-0-||
||-2-2-2-2-0-0-0-0-5-5-5-5---------|-2-2-2-2-0-0-0-0-5-5-5-5---------|| 2 Times
[ Tab from: http://www.guitartabs.cc/tabs/d/day_of_fire/detainer_btab.html ]
Rest 12 Measures

Chorus 1.--------------------------------- 2.--------------------------------
||---------------------------------|---------------------------------|| |---------------------------------||
||---------------------------------|---------------------------------|| |---------------------------------||
||-------------------------4-4-4-4-|-------------------------4-3-2-0-|| |-------------------------4-4-4-4-||
||-2-2-2-2-0-0-0-0-5-5-5-5---------|-2-2-2-2-0-0-0-0-5-5-5-5---------|| |-2-2-2-2-0-0-0-0-5-5-5-5---------||

Ending Gradually Slow Down
||----------|----------|---------|----------------------------|
||----------|----------|---------|----------------------------|
||----------|----------|---------|----------------------------|
||-22203330-|-22203330-|-2220333-|-2220333---3-3-3---2------2-|