Dawson High - Goodnight Starlight Chords & Tabs

 

Goodnight Starlight Chords & Tabs

Dawson High Chords & Tabs

Version: 1 Type: Tab 0 ratings
1 star 2 stars 3 stars 4 stars 5 stars
comments

Goodnight Starlight Tab

   
Dawson High
"Goodnight Starlight"

UPDATED: 10/29/2005!

(From the Split CD with the Juliana Theory though NOT the Juliana Theory like its
blasted all over the internet as.)

Tuning: Eb

This song has actually two guitars which are often hard to hear. The second guitar
pretty much plays the same thing over and over in the background and is much like
the intro.

(INTRO)

eb|--3---3---3--3---3--3---3--3---3---3---3--3---3--3---3--3----|
Bb|---3---3---3--3---3--3---3--3---3---3---3--3---3--3---3--3---|
Gb|-------------------------------------------------------------|
Db|-------------------------------------------------------------|
Ab|---------3--3---0------3--3-----------3--3---0------3--3-----|
Eb|-3---0-------------0----------3---0-------------0------------|


(CHORUS)

Guitar 1:
eb|-----------------------------------------------------------|
Bb|-----------------------------------------------------------|
Gb|-------5-----------------5-----------------5-------------5-|
Db|--2----5----5-4-----2----5----5-4-----2----5----5-4---2--5-|
Ab|--2----3----5-4-----2----3----5-4-----2----3----5-4---2--3-|
Eb|--0---------3-2-----0---------3-2-----0---------3-2---0----|

Guitar 2:
eb|---33---33----33---33----33----33----33---33--|
Bb|---33---33----33---33----33----33----33---33--|
Gb|----------------------------------------------|
Db|----------------------------------------------|
Ab|-----------3-----3-----0-----------3----3-----|
Eb|-3----0----------------------0----------------|

(POST CHOURS)

Guitar 1:
eb|----------------------------------------|
Bb|----------------------------------------|
Gb|-------5---------5---------5---------5--|
Db|-5--7--5---5--7--5---5--2--5---5--7--5--|
Ab|-5--7--3---5--7--3---5--2--3---5--7--3--|
Eb|-3--5------5--5------3--0------3--5-----|

Guitar 2:
eb|--3--3--3---3-----3--3--3---3-----3--3--3---3---|
Bb|---3--3--3-3-3-----3--3--3-3-3-----3--3--3-3-3--|
Gb|----------0---------------0---------------0-----|
Db|------------------------------------------------|
Ab|------------------------------------------------|
Eb|------------------------------------------------|

(VERSE)

Guitar 1:
Eb|----------------------------------------|
Bb|----------------------------------------|
Gb|-------5---------5---------5---------5--|
Db|-5--2--5---2--2--5---5--2--5---2--2--5--|
Ab|-5--2--3---0--2--3---5--2--3---0--2--3--|
Eb|-3--0------0--0------3--0------0--0-----|


Guitar2:
eb|---33---33----33---33----33----33----33---33--|
Bb|---33---33----33---33----33----33----33---33--|
Gb|----------------------------------------------|
Db|----------------------------------------------|
Ab|-----------3-----3-----0-----------3----3-----|
Eb|-3----0----------------------0----------------|


(CHORUS AGAIN)
[ Tab from: http://www.guitartabs.cc/tabs/d/dawson_high/goodnight_starlight_tab.html ]
Guitar 1:
eb|-----------------------------------------------------------|
Bb|-----------------------------------------------------------|
Gb|-------5-----------------5-----------------5-------------5-|
Db|--2----5----5-4-----2----5----5-4-----2----5----5-4---2--5-|
Ab|--2----3----5-4-----2----3----5-4-----2----3----5-4---2--3-|
Eb|--0---------3-2-----0---------3-2-----0---------3-2---0----|

Guitar 2:
eb|---33---33----33---33----33----33----33---33--|
Bb|---33---33----33---33----33----33----33---33--|
Gb|----------------------------------------------|
Db|----------------------------------------------|
Ab|-----------3-----3-----0-----------3----3-----|
Eb|-3----0----------------------0----------------|

(SOLO)

Guitar 1:
eb|-----------------------------------------------------------|
Bb|-8-7-------------------------------------------------------|
Gb|-----7--777-5-4-5-4--0-4-0-0-------------------------------|
Db|----------------------------7--5-7-5-7--77-10-9-7-9-7-5----|
Ab|-----------------------------------------------------------|
Eb|-----------------------------------------------------------|


eb|----------------------------------------|
Bb|-8-7------------------------------------|
Gb|-----777-5-4-5-4-0--4--00---------------|
Db|---------------------------7-5-7-5------|
Ab|----------------------------------------|
Eb|----------------------------------------|

eb|--------------------------------------------------------|
Bb|-13-12-10-8-8--13-12-10-12-10-8--88-10--88-10--88-10--8-|
Gb|--------------------------------------------------------|
Db|--------------------------------------------------------|
Ab|--------------------------------------------------------|
Eb|--------------------------------------------------------|


eb|----------------3---3---3---3|
Bb|----------------3---3---3---3|
Gb|-4-5-7-4-5-7--0---0---0---0--|  (x3)
Db|-----------------------------|
Ab|-----------------------------|
Eb|-----------------------------|


eb|--------------------------------|
Bb|--------------------------------|
Gb|-4-5-7-9-7-5-4-0-000-4-0-000-4-0|
Db|--------------------------------|
Ab|--------------------------------|
Eb|--------------------------------|


Guitar 2:

eb|---33---33----33---33----33----33----33---33--|
Bb|---33---33----33---33----33----33----33---33--|
Gb|----------------------------------------------|
Db|----------------------------------------------|
Ab|-----------3-----3-----0-----------3----3-----|
Eb|-3----0----------------------0----------------|



Outro:

eb|----------------------------|
Bb|----------------------------|
Gb|-----------55555555---------| (x2)
Db|-5555-7777-55555555---------|
Ab|-5555-7777-33333333---------|
Eb|-3333-5555------------------|
   PM.................


eb|----------------------------|
Bb|----------------------------|
Gb|-----------55555555---------|
Db|-5555-2222-55555555---------| (x2)
Ab|-5555-2222-33333333---------|
Eb|-3333-0000------------------|
   PM.................

eb|------------------------(3)-|
Bd|------------------------(3)-|
Gb|-55555--4--------2----------|
Db|-55555--4--(x3)--2---5------|
Ab|-33333--2--------0---5------|
Eb----------------------3------|
Comments