Dawn - Tulad Ng Dati Chords & Tabs

 

Tulad Ng Dati Chords & Tabs

Dawn Chords & Tabs

Version: 1 Type: Tab 0 ratings
1 star 2 stars 3 stars 4 stars 5 stars
comments

Tulad Ng Dati Tab

Tulad ng Dati

The Dawn

Simple lang to mga pare. Ako nga pala si Bru.


Intro:

[ Tab from: http://www.guitartabs.cc/tabs/d/dawn/tulad_ng_dati_tab.html ]
e--5-------------------------------------------------------|
B--4-------------3-----------------------------------------|
G--10--4--4-4-4--4-0-2-4----5-5-5--5-5-4-4-"-"-"-2-2-4-2-7-|
D--10------------------------------------------------------|
A--1-------------------------------------------------------|
E----------------------------------------------------------|


   Jingle bells....                        ...open sleigh
e---------------------------------------------------------|
B-----------------3---------------------------------------|
G--4-4-4--4-4-4--4-0-2-4----5-5-5--5-5-4-4-"-"-7-7-5-4-0--|
D---------------------------------------------------------|
A---------------------------------------------------------|
E---------------------------------------------------------|
Comments