Dawn - Envelope Ideas Chords & Tabs

 

Envelope Ideas Chords & Tabs

Dawn Chords & Tabs

Version: 1 Type: Tab 0 ratings
1 star 2 stars 3 stars 4 stars 5 stars
comments

Envelope Ideas Tab

   
URL:this is one of the great filipino band in early 90's(see them 
post this

artist:the dawn
song:Envelope ideas

leander_85@yahoo.com
09212165529

Intro:(i thing that is an keyboard)
Singing out my enveloped ideas
Doesn't seem all too bad
Hoping it would be easier
To sing out my enveloped ideas
E|---------------------------------------------------|
B|--9-9---------------9-9---------------9-9----------|
G|------9-9-----11-11-----9-9-----11-11-----9-9------|
D|----------9-9---------------9-9---------------9-9--|
A|---------------------------------------------------|
E|---------------------------------------------------|

stanza I:
trying pointlessly to understand
having nothing to say
just shadows what remains boy Inside
this is called is what my envelope ideas

chorus:
E|--
B|--
G|--
D|--
A|--
E|--

  G      D      C          Bm-C-D
singing out my envelope ideas
 G        D   C       Bm-C-D
Doesn't seem all too bad
G      G       C        Bm-C-D
Hoping it would be easier
G   D        C               Bm-C-D
To sing out my enveloped ideas

Interlude:(same as Intro)

stanza II:
Why should I carry this platter? (platter)
Didn't it just pass me by? (by...)
And does one cling right on the edge? (the edge)
I have an empty dream, this here my ideas.

(repeat chorus)
[ Tab from: http://www.guitartabs.cc/tabs/d/dawn/envelope_ideas_tab.html ]
solo:
E|--------------------------------------------------------------------|
B|--12-12----------12-12---------------10-10----------10-10-----------|
G|--------12-12----------12-12---------------12-12----------12-12-----|
D|--------------14-------------12\-/12-------------12-------------12--|
A|--------------------------------------------------------------------|
E|--------------------------------------------------------------------|

E|--------------------------------------------------------------------------|
B|------12-12----------12-12----------------10-10------------10-10----------|
G|------------12-12----------12-12----------------12-12------------12-12----|
D|--/12-------------14-------------12\--/12--------------14--------------14-|
A|--------------------------------------------------------------------------|
E|--------------------------------------------------------------------------|

E|-----------7-----------------7----------------5----------|
B|----7-9-10---10-9-7---7-9-10---10-9-7---5-7-8---8-7-5----|
G|--9-----------------9-----------------7---------------7--|
D|---------------------------------------------------------|
A|---------------------------------------------------------|
E|---------------------------------------------------------|

E|---------------------------------------------12-14~~-14\17~~-17/22--|
B|---AH-------------------------------12-14-15------------------------|
G|--<9>-11--9-11--9-11--9-11--9-11-12---------------------------------|
D|--------------------------------------------------------------------|
A|--------------------------------------------------------------------|
E|--------------------------------------------------------------------|

E|--22--22-22-22--22^full-22^full--|
B|---------------------------------|
G|---------------------------------|
D|---------------------------------|
A|---------------------------------|
E|---------------------------------|

(repeat chorus until fading)

leander_85@yahoo.com
09212165529
Comments