David Wilcox - Riverboat Fantasy Chords & Tabs

 

Riverboat Fantasy Chords & Tabs

David Wilcox Chords & Tabs

Version: 1 Type: Tab 0 ratings
1 star 2 stars 3 stars 4 stars 5 stars
comments

Riverboat Fantasy Tab

   
----------------------------------------------------------------------------
			     RiverBoat Fantasy - David Wilcox
----------------------------------------------------------------------------
Tabbed by:Stevie Boy Walls
Email:

Tuning:Standard

   Intro:
e|-------------------------------------------------------------------------|
B|-------------------------------------------------------------------------|
G|-------10-8-7------------------------------------------------------------|
D|---------------10--------------------------------------------------------|
A|--------------------11--8-8-6-5----------3-------------------------------|
E|0-1------------------------------8---4---1-------------------------------|
[ Tab from: http://www.guitartabs.cc/tabs/d/david_wilcox/riverboat_fantasy_tab.html ]
or you can play it this way,its the same only easier
e|-------1-------------------------------------------------------|
B|----------4-3-1------------------------------------------------|
G|----------------1----------------------------------------------|
D|-------------------3-3-1---------------------------------------|
A|-------------------------3-1-----3-----------------------------|
E|-0-1--------------------------4--1-----------------------------|


Basically a blues progression in F, in the first position.  You could get
away using chords like F5 and Bb5, but use whatever you feel works for
you.

 

Verse Chords ---  F - Bb - F

                  F - G  - C

                  F - Bb - Bb

                  F - Bb - C

 

Chorus ---------  F - Bb

                  F - G - C

the "Heartache" descending pattern in the chorus goes
e|-------------------------|
B|-------------------------|
G|--10-9--8--7-------------|
D|--10-9--8--7-------------|
A|--8--7--6--5-------------|
E|-------------------------|

the solo is all in F

| /  slide up
| \  slide down
| h  hammer-on
| p  pull-off
| ~  vibrato
| +  harmonic
| x  Mute note
============================================================================
Comments