David Wilcox - Do The Bearcat Chords & Tabs

 

Do The Bearcat Chords & Tabs

David Wilcox Chords & Tabs

Version: 1 Type: Bass Tab 0 ratings
1 star 2 stars 3 stars 4 stars 5 stars
comments

Do The Bearcat Bass Tab

this is the main riff for David Wilcox...there is different ways to do it...
but this one sounds the best....
[ Tab from: http://www.guitartabs.cc/tabs/d/david_wilcox/do_the_bearcat_btab.html ]
[----------------------------------------]
[-----------------------7----------------]  and repeat
[----0--0-4--5-4-6-7/9-------------------]
[----------------------------------------]

This is super easy but sounds cool...u can also do it a diff way
but it is harder....

[---------------------------------------------]
[-------------------7-------------------------]
[---------4-5-6-7/9---------------------------]     And repeat
[---5---5-------------------------------------]
Comments