David Tao - Angel Chords & Tabs

 

Angel Chords & Tabs

David Tao Chords & Tabs

Version: 1 Type: Tab 0 ratings
1 star 2 stars 3 stars 4 stars 5 stars
comments

Angel Tab

This is my first guitar tab so if it's incorrect or confusing forgive me. I search
everywhere for this guitar tab but never found any so I thought I should tab it myself.
 I believe there are more parts to it but this is all I can do. Feel free to correct me:
chinky24_@hotmail.com. By the way, what is this song about?? 

This is all you play through out the whole song except for the last part of the tab. As
you can see, this is played at the A chord so it should be very easy. Use your 2,3,4
finger to hold the A chord.

Artist: David Tao 
Song: Angel
Tabbed: Ching Her

Tune guitar down half-step

Eb||--------------------------|---------------------------||
Bb||--------2-----------0-----|--------0-----------0------||
Gb||--------2--2--------2--2--|-----2--2--2-----2--2--2---||
Db||-----2-----------2--------|--------------0------------||
Ab||--0-----------------------|---------------------------||
Eb||--------------0-----------|--2------------------------||play this 2x before singing "Angel"

[ Tab from: http://www.guitartabs.cc/tabs/d/david_tao/angel_tab.html ]
Eb||--------------------------|---------------------------||
Bb||--------2-----------0-----|--------0-----------0------||
Gb||--------2--2--------2--2--|-----2--2--2-----2--2--2---||
Db||-----2-----------2--------|--------------0------------||
Ab||--0-----------------------|---------------------------||
Eb||--------------0-----------|--2------------------------||
      
      Ang.........gel............An..........gel
                                                 
Eb||--------------------------|-----------0-----||
Bb||--------2-----------0-----|--------0--0--3--||
Gb||--------2--2--------2--2--|-----2--2-----2--||
Db||-----2-----------2--------|-----------------|| <---the last part is played in the intro
Ab||--0-----------------------|-----------------||
Eb||--------------0-----------|--2--------------||


Lyric:

Angel Angel

Ching tze chung
Kan jian yi chang mok sen de lian
Na yen sen ru chi an dan
Siaw yi siaw
Shi chian tong ku se de jui jiaw 
Wo de ji mok sui ze dao

Siang tiao chuan zai hai sang piaw 
Pei tou sing ye kan pu tao
Sui neng kou yang chi le fang
Yen yen li kai je hei chao

Angel Angel
Pan wang ni chai wo shen bian 
Angel Angel 
Ching ni ching ching jua juk wo de sou

You se hou
Wo siang pu hui you ren liaw jie
Sing li mien chang che de tung
Wo hai pa
Yung chen sing mien tui che si jie 
Ze hao ye lai ye chen mok
Yi ge ren zai ren hai piaw
Sou hau de ren chao pu tao
Sui ke wo wen rou yong pao wo
Tang wo kan ze sing hui yau sui liaw

Ngel Angel
Pan wang ni chai wo shen bian
Angel Angel
Shi fou ting jian wo zai hu huan ni

Neng pu neng kao su ku tan pi bei de wo
Ni yong yen wei wo sou hou

Angel Angel 
Ching ni liew chai wo shen bian
Angel Angel
Ching ni pu yau fang kai wo de sou
Comments