David Mcwilliams - The Days Of Pearly Spencer Chords & Tabs

 

The Days Of Pearly Spencer Chords & Tabs

David Mcwilliams Chords & Tabs

Version: 1 Type: Bass Tab 0 ratings
1 star 2 stars 3 stars 4 stars 5 stars
comments

The Days Of Pearly Spencer Bass Tab

"The Days of Pearly Spencer" by David McWilliam
===============================================

transcribed by Gilles Velay (gvelay@free.fr)

Notations :
  e : 8th             h : half            q : quarter         
  s : 16th            w : whole           
  +++ : tied notes    / : slide up        


Intro
-----
    e    s e    s s s   e    s e    s s s   e    s e    s s s  
G-|-------------------|-------------------|-------------------|
D-|-------------------|-------------------|-------------------|
A-|-0----0-0----------|-0----0-0----------|-0----0-0----------|
E-|-------------3-3-3-|-------------3-3-3-|-------------3-3-3-|

    e    s e    s s s  
G-|-------------------|
D-|-------------------|
A-|-0----0-0----------|
E-|-------------3-3-3-|

Verse
-----
--played twice
    w                q  h+q       w                  q  h+q         
G-|----------------|------------|----------------|-----------------|
D-|----------------|----5-------|----------------|------9----------|
A-|-0--------------|-7----------|-7--------------|-/10-------------|
E-|----------------|------------|----------------|-----------------|
[ Tab from: http://www.guitartabs.cc/tabs/d/david_mcwilliams/the_days_of_pearly_spencer_btab.html ]
    w                q  h+q       h+q     q    h+q     q    h+q     q   
G-|----------------|------------|------------|------------|------------|
D-|----------------|----2-------|------------|------------|-5----------|
A-|-0--------------|-3----------|-3-------3--|---------5--|---------5--|
E-|----------------|------------|------------|-3----------|------------|

Chorus
------
--played twice
    h    q  q++++q  q  q  q    h         q  q+++++q    q  q   q    
G-|------------|-------------|------------------|-----------------|
D-|---------7--|-7-----------|--------------9---|-9---------------|
A-|-5----8-----|----8--7--5--|-7-------/10------|-----10--9---7---|
E-|------------|-------------|------------------|-----------------|

    e    s e    s s s   e    s e    s s s   e    s e    s s s  
G-|-------------------|-------------------|-------------------|
D-|-------------------|-------------------|-------------------|
A-|-0----0-0----------|-0----0-0----------|-0----0-0----------|
E-|-------------3-3-3-|-------------3-3-3-|-------------3-3-3-|

    e    s e    s s s  
G-|-------------------|
D-|-------------------|
A-|-0----0-0----------|
E-|-------------3-3-3-|


----------------------------------------------------------------------
| Tab generated with GnTabber (http://gvelay.free.fr/tools/gntabber) |
| on Sun Oct 22 19:35:48 2000                                        |
----------------------------------------------------------------------
Comments