David Lindley - Turning Point Chords & Tabs

 

Turning Point Chords & Tabs

David Lindley Chords & Tabs

Version: 1 Type: Bass Tab 0 ratings
1 star 2 stars 3 stars 4 stars 5 stars
comments

Turning Point Bass Tab

Play This Simply the whole song ! (sometimes play a bit different , improvise )

G|-----------------------------------|
D|-------------5---3---3-1-0---------|
A|-3-3-1-0-------------------3-3-1-0-|
E|---------3-0-----------------------|
[ Tab from: http://www.guitartabs.cc/tabs/d/david_lindley/turning_point_btab.html ]
Your menrath , for corrections ( i think itīs perfect this way e-mail me : kurt_cobain2@msn.com

G|---------------------------------------|
D|-------------5---3---3-1-0-------------|
A|-3-3-1-0-------------------3-3p1h3-1-0-|
E|---------3-0---------------------------|

i thi k nobody will look at that because nobody cares about that guy
Comments