David Lee Roth - Slam Dunk Chords & Tabs

 

Slam Dunk Chords & Tabs

David Lee Roth Chords & Tabs

Version: 1 Type: Bass Tab

Slam Dunk Bass Tab

   
In Eb

[INTRO] Bass in at 0:09
Gb|---------------------------|
Db|---------------------------|
Ab|---------------------------|
Eb|-5-5-5-5-5-5-5-5-5-5-5-5-5-|

[VERSES] 0:16
Gb|-----------------------------------------| 
Db|-7-6-5-----------------------------------| 
Ab|-----------------------------------------| 
Eb|-------0-0-0-0-0-0-0-0-0-0-0-0-0-0-0-0-0-| 

0:24
Gb|-------------------|
Db|-5-4-3-------------|
Ab|-------------------|
Eb|-------5-5-5-5-5-5-|
[ Tab from: http://www.guitartabs.cc/tabs/d/david_lee_roth/slam_dunk_btab.html ]
0:32
Gb|-------------------| 
Db|-7-6-5-------------|
Ab|-------------------| 
Eb|-------0-0-0-0-0-0-|

[PRE-CHORUS]0:41
Gb|---------------------------------------------------------------| 
Db|---------------------------------------------------------------| 
Ab|----5---------------------5-----------------5------------------| 
Eb|-3-----5-5-5-5-5-5-5-5-3-----5-5-5-5-5-5-3-----5-5-5-5-5-5-5-5-|

0:53 "And I plan on Winin'!"
Gb|---------------------------|
Db|---------------------------|
Ab|-7-6-5-432-7-6-5-432-------|
Eb|---------------------5-5-5-|

The rest of the song follows the same pattern.