David Lee Roth - Just A Gigolo Chords & Tabs

 

David Lee Roth Chords & Tabs

Version: 1 Type: Bass Tab 0 ratings
1 star 2 stars 3 stars 4 stars 5 stars
comments

Just A Gigolo Bass Tab

INTRO:
G|-----5--8--5-8-------8--8------5--8--5-8-----6-6-----|
D|--6-------------8-8----------6-----------8-8---------|
A|-----------------------------------------------------|
E|-----------------------------------------------------|





VERSE:
G|-----5--8--5-8----5--8--5-8----------------8------|
D|---6------------6------------6-6--9-9-8-8----8----|
A|--------------------------------------------------|
E|--------------------------------------------------|
   I'm just a gigolo...
G|----------8-8-----8-6-5--------------|
D|-----8-8------8-8-------8--6-3-------|
A|-6-6---------------------------6-3---|
E|-------------------------------------|
  paid for every dance..

G|-----------6-3--------5----3----------------------------|
D|-------3-4-----3-4------3----6-3------------------------|
A|---3-6---------------------------4-----7--7--6--6-8--8--|
E|-4---------------------------------6-6------------------|
  there would come a day..

G|----------------------|
D|------------6-5-------|
A|-------6-6------8-6---|
E|--6-6-----------------|
  life goes on..

Verse..


before chorus:
G|-------------------------------|
D|-------------------------------|
A|--------7-7--6--6------8-------|
E|--6--6-------------------6-----|
  when the end comes..




CHORUS:
G|----5--8--5-8-------------------------5--|
D|--6-----------6-5-4-3-----------3-5-7----|
A|-------------------------0--3-5----------|
E|-----------------------1-----------------|
  cuz I ain't got nobody..


G|----5-6-7-8--6-5-------------------------|
D|-8---------------8--6--3-------------3---|
A|-------------------------6--3---3--6-----|
E|------------------------------4----------|
  cares for me...

G|----5--8--5-8-------------------------5--|
D|--6-----------6-5-4-3-----------3-5-7----|
A|-------------------------0--3-5----------|
E|-----------------------1-----------------|
   I'm so sad and lonely...

G|--------------10---8-8-8-8--8--6-5-------|
D|-8-8-----8-8-----8-----------------8-----|
A|-----8-8---------------------------------|
E|-----------------------------------------|
  sad and lonely..

G|----5--8--5-8----5--8--5-8---------------------------|
D|--6------------6--------------3-6--3-6-----3--6--6---|
A|----------------------------4-----------4------------|
E|-----------------------------------------------------|
  (sax..)

G|-----------------------------------------|
D|-----------------------------------------|
A|----0--3--0-3----0-3--0--1---------------|
E|--1-----------1--------------------------|
                         (stop)

G|----5--8--5-8-------------------------5--|
D|--6-----------6-5-4-3-----------3-5-7----|
A|-------------------------0--3-5----------|
E|-----------------------1-----------------|
  I ain't got nobody...


G|----5-6-7-8--6-5-------------------------|
D|-8---------------8--3--6-------------3---|
A|-------------------------3--6---3--6-----|
E|------------------------------4----------|
 cares for me...


[ Tab from: http://www.guitartabs.cc/tabs/d/david_lee_roth/just_a_gigolo_btab.html ]
SAX SOLO:
G|-----5--8--5-8-----------------------10---------|
D|---6-----------6-6-----------10-10------10------|
A|--------------------10-9-8-8-------8-------8----|
E|------------------------------------------------|



G|------------8-8-----------------10--13--10-------------|
D|--8-8----8------8--------10--13-------------13--10-----|
A|------8-----------6---11-------------------------------|
E|-------------------------------------------------------|


G|-----5--8--5-8---------------------10-10------|
D|---6-----------6-6-----------10-10------10-9--|
A|--------------------10-9-8-8------------------|
E|----------------------------------------------|


G|--------------------8--8--------8-6-5-----|
D|-8-8-------8-8---8--------8--8--------8---|
A|-----8--8------8--------------------------|
E|------------------------------------------|

G|-----5--8--5-8---------------------8-8----------|
D|---6-----------6-6-----------10-10------10------|
A|--------------------10-9-8-8----------------8---|
E|------------------------------------------------|

G|--------------------------------|
D|-------------3-4-5-6------------|
A|----3-4-5-6---------------------|
E|--6-----------------------------|

CHORUS:
G|----5--8--5-8--------------------------5--|
D|--6------------6-5-4-3-----------3-5-7----|
A|--------------------------0--3-5----------|
E|------------------------1-----------------|
  I ain't got nobody


G|----5-6-7-8--6-5-------------------------|
D|-8---------------8--6--3-------------3---|
A|-------------------------6--3---3--6-----|
E|------------------------------4----------|
 cares for me..

G|----5--8--5-8-------------------------5--|
D|--6-----------6-5-4-3-----------3-5-7----|
A|-------------------------0--3-5----------|
E|-----------------------1-----------------|
  I'm so sad and lonely..


G|------------------10--15---8-8--------8--6--5-----|
D|--8-6-5-6--8--12----------------8--8-----------8--|
A|--------------------------------------------------|
E|--------------------------------------------------|



G|----5--8--5-8----5--8--5-8---------------------------|
D|--6------------6--------------3-6--3-6-----3--6--6---|
A|----------------------------4-----------4------------|
E|-----------------------------------------------------|
   (sax)..

G|-------------------------------------------------|
D|---------------------------------------3-4--5--6-|
A|----0--3--0-3-----0-3--0-3-----3-4-5-6-----------|
E|--1-----------1-------------6--------------------|

G|----5--8--5-8-------------------------5--|
D|--6-----------6-5-4-3-----------3-5-7----|
A|-------------------------0--3-5----------|
E|-----------------------1-----------------|


G|----5-6-7-8--6-5--------------------|
D|-8---------------8--6-6-5-4-3-------|
A|------------------------------3-2---|
E|------------------------------------|


G|------------------------------5--8-6-----5---------|
D|--------------------------6-8--------6-8-----------|
A|---3-4-5-6-4-3----6-4-----------------------6------|
E|-6---------------6---4------------------------4----|
Comments