David Gray - Babylon Chords & Tabs

 

Babylon Chords & Tabs

David Gray Chords & Tabs

Version: 3 Type: Tab 0 ratings
1 star 2 stars 3 stars 4 stars 5 stars
comments

Babylon Tab

   
David Gray - Babylon

any questions? email me: blink182_fan45@yahoo.com

Capo I - if you don't have a capo...tune up? But that might break your strings.
Instead, if you don't have a capo, it might be hard but just barre the 1st fret.  

Riff A:
  Friday night i'm going nowhere  all the lights are changing green to
E|------------------------------|-------------------------0-----------|
B|-----------2h3p2--------------|-----------------0---------------0---|
G|-----2---------------2------2-|-----------2-------------------------|
D|-0-----------------------0----|-------0-----------------------------|
A|------------------------------|-------------------------------------|
E|------------------------------|----3--------------------------------|

   red...
E|------------------------------|-------------------------0-----------|
B|-----------2h3p2--------------|-----------------0---------------0---|
G|-----2---------------2------2-|-----------2-------------------------|
D|-0-----------------------0----|-------0-----------------------------|
A|------------------------------|-------------------------------------|
E|------------------------------|----3--------------------------------|

Lyric's arent exact, oh well.
(repeat riff A for the next lines)
  Turning over TV stations situations running through my head...
  Looking back through time you know it's clear that i've been blind i've been a fool...
  To open up my heart to all that jealousy that bitterness that ridicule...

  Saturday i'm running wild all the lights are changing green to red...
  Moving through the crowd i'm pushing chemicals all rushing through my bloodstream...
  Only wish that you were here you know i'm seeing it so clear i've been afraid...
  To tell you how I really feel admit to some of those bad mistakes I made...

Chorus:
        Yeah if you want it          come and get
E|-2--x-2----3p2p0------|-------------3p2p0-----|
B|-3--x-3-------------3-|-2---x-2------------2--|
G|-2--x-2---------------|-2---x-2---------------|
D|-0--x-0---------------|-2---x-2---------------|
A|----------------------|-0---x-0---------------|
E|----------------------|-----------------------|
[ Tab from: http://www.guitartabs.cc/tabs/d/david_gray/babylon_tab_ver_3.html ]
   it                 crying out loud
E|------------0-----|-------------------------------|
B|--0--x--0h3---3p0-|-2-----------3-----------5-----|
G|--0--x--0---------|-----0-----------0-------------|
D|--2--x--2---------|--------2-----------4--------5-|
A|------------------|-0-----------0-----------0-----|
E|--0--x--0---------|-------------------------------|

        The love that i  was         giving you
E|-2--x-2----3p2p0------|-------------3p2p0-----|
B|-3--x-3-------------3-|-2---x-2------------2--|
G|-2--x-2---------------|-2---x-2---------------|
D|-0--x-0---------------|-2---x-2---------------|
A|----------------------|-0---x-0---------------|
E|----------------------|-----------------------|

    was               never in doubt
E|------------0-----|-3p0-------------------|
B|--0--x--0h3---3p0-|-3------3p0------------|
G|--0--x--0---------|-0-----------2p0-----0-|
D|--2--x--2---------|-0-----------------2---|
A|------------------|-2---------------------|
E|--0--x--0---------|-3---------------------|

        Let go of your   heart   let go of your
E|-2--x-2----3p2p0------|-------------3p2p0-----|
B|-3--x-3-------------3-|-2---x-2------------2--|
G|-2--x-2---------------|-2---x-2---------------|
D|-0--x-0---------------|-2---x-2---------------|
A|----------------------|-0---x-0---------------|
E|----------------------|-----------------------|

   head                feel it now
E|------------0-----|-------------------------------|
B|--0--x--0h3---3p0-|-2-----------3-----------5-----|
G|--0--x--0---------|-----0-----------0-------------|
D|--2--x--2---------|--------2-----------4--------5-|
A|------------------|-0-----------0-----------0-----|
E|--0--x--0---------|-------------------------------|

              Babylon...
E|-5--------------------2h3p2--------|--------------0------|
B|---2---------------2--------2----2-|---------0---------0-|
G|-----2----------0--------------0---|-------2-------------|
D|-------2---------------------------|-----0---------------|
A|-0-------0-------------------------|---------------------|
E|-----------------------------------|--3------------------|

(riff A with this verse)
Sunday afternoon and all the lights of London fade from red to blue     
Iím kicking through the autumn leaves and wondering where it is youíre going to
Turning back for home you know Iím feeling so alone I canít believe 
And climbing up the stair I turn around to see you smiling there in front of me

After that, play the chorus one more time.
Comments