David Gilmour - Theres No Way Out Of Here Chords & Tabs

 

Theres No Way Out Of Here Chords & Tabs

David Gilmour Chords & Tabs

Version: 1 Type: Tab 0 ratings
1 star 2 stars 3 stars 4 stars 5 stars
comments

Theres No Way Out Of Here Tab

Band name: David Gilmour
Song name: There's no way out of here (Solos)
Tabbed by: Terry Sims (Masterofdarknes)
Email: Floyd_Fan89@Teenspot.com


Solo One:

e|--------------------------------------------------------------------------|
B|--15b17-----12--12--15b17r15--12--15--12----------------------------------|
G|------------------------------------------14--s9--14b16--14--12------s0---|
D|--------------------------------------------------------------------------|
A|--------------------------------------------------------------------------|
E|--------------------------------------------------------------------------|

Solo Two:

e|--------------------------------------------------------------------------|
B|--15b17-------s12--12--15b17r15--12---------------------------------------|
G|-------------------------------------14b16-----(14)b16r14--12--14------12-|
D|-------------------------------------------------------------------14-----|
A|--------------------------------------------------------------------------|
E|--------------------------------------------------------------------------|

Solo Three:

e|-------------------------------------14--15--15b17----r15--14-------------|
B|--15b17----(17)r15--12--15----15b17----------------------------15--15b17--|
G|--------------------------------------------------------------------------|
D|--------------------------------------------------------------------------|
A|--------------------------------------------------------------------------|
E|--------------------------------------------------------------------------|
[ Tab from: http://www.guitartabs.cc/tabs/d/david_gilmour/theres_no_way_out_of_here_tab.html ]
e|---------------------------------------------------------------------------|
B|--15b17r15--12--12---------------------------------------------------------|
G|---------------------------9--12--(9)--14--14b15r14--12--14--14-----12--11-|
D|---------------------------------------------------------------------------|
A|---------------------------------------------------------------------------|
E|---------------------------------------------------------------------------|

e|--------------------------------------------------------------------------|
B|------------------------------------------------8--10--10b12--r10---------|
G|--7--9br--p7--9-----9br--p7---------------7--9----------------------------|
D|-------------------------------7--5--7s9----------------------------------|
A|--------------------------------------------------------------------------|
E|--------------------------------------------------------------------------|

e|--------------------------------------------------------------------------|
B|--15b17r15b17--15--15b17r15-----------------------------------------------|
G|-----------------------------14b16------(16)r14--12------14--12----9--7---|
D|-----------------------------------------------------14-------------------|
A|--------------------------------------------------------------------------|
E|--------------------------------------------------------------------------|

e|--------------------------------------------------------------------------|
B|--------------------------------------------------------------------------|
G|--------------------------------------------------------------------------|
D|--7p5h7--5--2--5--2--------2----------------------------------------------|
A|---------------------2--0--2----------------------------------------------|
E|---------------------------0----------------------------------------------|
Comments