David Gilmour - On An Island Chords & Tabs

 

On An Island Chords & Tabs

David Gilmour Chords & Tabs

Version: 4 Type: Tab

On An Island Tab

David Gilmour
On An Island 1st Solo

|-------------------------------------------------------------------------|
|-10--10--12-10b12---10---------------------------------------------------|
|---11-----------------11-9-----------------------------------------------|
|----------------------------10/12-12-------------------------------------|
|-------------------------------------12h14-------------------------------|
|-------------------------------------------------------------------------|

|-------------------------------------------------------------------------|
|-----------------------------------7--7--7-7-7--7-7-7--------------------|
|--------------------------------7--7--7--7-7-7--7-7-7--------------------|
|----------------7-8h7----7--7/9------------------------------------------|
|-----7-10-9--7--------10--------------------------------7----------------|
|-5-7---------8------------------------------------------8----------------|

|-------------------------------------------------------------------------|
|-----8-10-8-10b12----10b12--10-10b--8-10---------------------------------|
|-7/9--------------------------------------9-7-9---7----------------------|
|----------------------------------------------------9-7------------------|
|--------------------------------------------------------10-7-------------|
|-------------------------------------------------------------------------|
[ Tab from: http://www.guitartabs.cc/tabs/d/david_gilmour/on_an_island_tab_ver_4.html ]
|-7--7-7-7--7-7-7--0----------8-------------------------------------------|
|-7--8-8-7--8-8-7--10--10b12----10b12--10h12p10---------------------------|
|-------------------------------------------------------------------------|
|-------------------------------------------------------------------------|
|-------------------------------------------------------------------------|
|-------------------------------------------------------------------------|

|------------------------------12-15-12-------12-15-12-15b17-17b19--------|
|-15b17--15b17r15b17-12-15b17----------15b17------------------------------|
|-------------------------------------------------------------------------|
|-------------------------------------------------------------------------|
|-------------------------------------------------------------------------|
|-------------------------------------------------------------------------|

|-15--------------------------14-14-14/15-15-15-17-17b19--17b19--17-17b19-|
|-----15b17--15p12------------12------------------------------------------|
|------------------14-12--11--12------------------------------------------|
|-----------------------------12------------------------------------------|
|-------------------------------------------------------------------------|
|-------------------------------------------------------------------------|

|-14b15-14--12b13-12-13--10b12-8------------------------------------------|
|--------------------------------11--8/10---------------------------------|
|-------------------------------------------------------------------------|
|-------------------------------------------------------------------------|
|-------------------------------------------------------------------------|
|-------------------------------------------------------------------------|