David Gilmour - On An Island Chords & Tabs

 

On An Island Chords & Tabs

David Gilmour Chords & Tabs

Version: 3 Type: Tab

On An Island Tab

On an island - last solo
It sounds correct?
listen to the song to get right time.


e|------------------------------------------------------|
b|-------------------12-12h11h12--12b---10~-------------|
g|------------12-14-------------------------------------|
d|---12/14----------------------------------------------|
a|------------------------------------------------------|
e|------------------------------------------------------|


e|-------------------------------------------------------------|
b|--10b---8~----7h8h7------------------------------------------|
g|--------------------7-----------7-9b-------------------------|
d|----------------------7-7---7/9------------------------------|
a|-------------------------------------------------------------|
e|-------------------------------------------------------------|


e|------------12--12h11h12--12h11h12--------------------------------------|
b|---------12-------------------------------------------------------------|
g|---9/12-----------------------------------------------------------------|
d|------------------------------------------------------------------------|
a|------------------------------------------------------------------------|
e|------------------------------------------------------------------------|

e|---11-------------------------------------------------------------|
b|-------12------14b--12-11-12~-------------------------------------|
g|-----------14-----------------------------------------------------|
d|------------------------------------------------------------------|
a|------------------------------------------------------------------|
e|------------------------------------------------------------------|

e|----------12-14-15--14-15------------------------------------|
b|--12/15--------------------12-13-----------------------------|
g|-------------------------------------------------------------|
d|-------------------------------------------------------------|
a|-------------------------------------------------------------|
e|-------------------------------------------------------------|

e|-------12---14-15h14-----14----14h15p14h15------------------|
b|----13------------------------------------------------------|
g|------------------------------------------------------------|
d|------------------------------------------------------------|
a|------------------------------------------------------------|
e|------------------------------------------------------------|

e|---14h15h14------------------------12/------------------------|
b|------------15-----------------15-----------------------------|
g|----------------14-14---14h16---------------------------------|
d|--------------------------------------------------------------|
a|--------------------------------------------------------------|
e|--------------------------------------------------------------|
[ Tab from: http://www.guitartabs.cc/tabs/d/david_gilmour/on_an_island_tab_ver_3.html ]
e|----7-----------------------------------------------------|
b|----8------10---11b--8------------------------------------|
g|---------9-------------9--7-----------------7-------------|
d|-----------------------------7b-5--7ha--7/9---------------|
a|----------------------------------------------------------|
e|----------------------------------------------------------|

e|----------------------------------------------------|
b|----------------------------------------------------|
g|-----8----------------------------------------------|
d|---9------------------------------------------------|
a|----------------------------------------------------|
e|----------------------------------------------------|

e|------------------------------------------------------------------|
b|------------------11b-11-8--13---11b-8--10b-7---------------------|
g|------------------------------------------------------------------|
d|---5h7-5h7-5------------------------------------------------------|
a|------------------------------------------------------------------|
e|------------------------------------------------------------------|

e|---------------------------------------------------------------|
b|---------------------------------------------------------------|
g|-----------------------------------------7-7-9*----------------|
d|------------------------------5-7--7-9-------------------------|
a|--------------------------5/7----------------------------------|
e|--3--2--3~--p0----5---5h7--------------------------------------|

e|-------------------------------------------------------------------------|
b|--------------10-12--12h11h10h12--12h11h12-------------------------------|
g|-9/12-----12-------------------------------------------------------------|
d|-------------------------------------------------------------------------|
a|-------------------------------------------------------------------------|
e|-------------------------------------------------------------------------|


e|---12h10h12-----13h12h10h12----/---------------------------------------|
b|-----------------------------------------------------------------------|
g|-----------------------------------------------------------------------|
d|-----------------------------------------------------------------------|
a|-----------------------------------------------------------------------|
e|-----------------------------------------------------------------------|

e|-----12-----12~/------12---14-15~b-----------18~b-15-------------|
b|--------15------------------------15h12-------------14-----------|
g|-----------------------------------------------------------------|
d|-----------------------------------------------------------------|
a|-----------------------------------------------------------------|
e|-----------------------------------------------------------------|

e|---------------------------------------------------------|
b|--15b--13--9~--------------------------------------------|
g|---------------------------------------------------------|
d|---------------------------------------------------------|
a|---------------------------------------------------------|
e|---------------------------------------------------------|