David Crowder Band - Our Love Is Loud Chords & Tabs

 

Our Love Is Loud Chords & Tabs

David Crowder Band Chords & Tabs

Version: 1 Type: Tab 0 ratings
1 star 2 stars 3 stars 4 stars 5 stars
comments

Our Love Is Loud Tab

   
David Crowder Band-Our Love Is Loud
Tabbed by: siralbinochump
Standard Tuning-EADGBe

Chords used:
    E    B   C#m7  A2
e|--0----2----4----0--|
B|--0----4----5----0--|
G|--1----4----4----2--|
D|--2----4----6----2--|
A|--2----2----4----0--|
E|--0-----------------|

Intro (instrumental)
Lead:
e|--------------------4--4-5-4----|	x4
B|--5-7-5-4-5--5-7--7----------7--|

Rhythm:
e|--0----2----4----0--|
B|--0----4----5----0--|
G|--1----4----4----2--|
D|--2----4----6----2--|	x4
A|--2----2----4----0--|
E|--0-----------------|

Verse (When we sing...)
Lead:
e|--------------------------|
B|--5-4-5-4-5-4-5-4-5-4~~---|	only in last two lines
When we laugh...
When we lift our voices...

Rhythm:
e|--0----2----4----0--|
B|--0----4----5----0--|
G|--1----4----4----2--|
D|--2----4----6----2--|	x4
A|--2----2----4----0--|
E|--0-----------------|

Chorus (We love you...)
Lead:
e|--------------------4--4-5-4----|	x2
B|--5-7-5-4-5--5-7--7----------7--|

Rhythm:
e|--0----2----4----0--|
B|--0----4----5----0--|
G|--1----4----4----2--|	x2
D|--2----4----6----2--|
A|--2----2----4----0--|
E|--0-----------------|
[ Tab from: http://www.guitartabs.cc/tabs/d/david_crowder_band/our_love_is_loud_tab.html ]
Transition Lick (instrumental)
Lead:
e|--------------------------------|	x3
B|--5-7---4-5--5----4-5--7-4------|	
4th time:
e|-----------------------7----|
B|--5-7---4-5--5---4-5-7---7--| 


Bridge (Our love is big...)
Rhythm:
e|--0----2----4----0--|
B|--0----4----5----0--|
G|--1----4----4----2--|
D|--2----4----6----2--|	x4
A|--2----2----4----0--|
E|--0-----------------|

Outro (instrumental)
Rhythm:
e|--0----2----4----0--|
B|--0----4----5----0--|
G|--1----4----4----2--|
D|--2----4----6----2--|	x4
A|--2----2----4----0--|
E|--0-----------------|
Fade out

Order:
Intro
Verse (no rhythm)
Chorus
Transition Lick
Verse (no rhythm until lead entrance)
Chorus
Bridge
Chorus (vocal only)
Chorus chords (with diff lyrics-we lift our voices louder still...God is near...)
Chorus chords (with diff lyrics-we lift our voices louder still...God is near...)
Chorus
Outro 

Basically, the chord progression is E B C#m7 A2 for the rhythm guitar part.
The lead has a couple of runs-I am not sure if they are 100% correct, but they sound
okay. Please rate this tab and if there is anything wrong, please correct it or contact
me at siralbinochump625@yahoo.com. 
Comments