David Crowder Band - Only You Chords & Tabs

 

Only You Chords & Tabs

David Crowder Band Chords & Tabs

Version: 1 Type: Tab

Only You Tab

   
h=hammeron
-----------------0-------------|
--------1------3---3-----------|
------0---0---------0----------|
--0h2-------2--------2---------|
3---------------------3--------|
-------------------------------|
[ Tab from: http://www.guitartabs.cc/tabs/d/david_crowder_band/only_you_tab.html ]
--------3-1-0------------------|
---2----------3-1-0------------|
--0-0-0------------------------|
-0---0-------------------------|
2------------------------------|
-------------------------------|

---------------------------------|
---1---3-------------------------|
--0-0-0--------------------------|
-2---2---------------------------|
0--------------------------------|
---------------------------------|