David Craig - 7 Days Chords & Tabs

 

7 Days Chords & Tabs

David Craig Chords & Tabs

Version: 1 Type: Tab 0 ratings
1 star 2 stars 3 stars 4 stars 5 stars
comments

7 Days Tab

   
A.Arjomandi
Craig David
7 days


Version 1
[ Tab from: http://www.guitartabs.cc/tabs/d/david_craig/7_days_tab.html ]
e--------------------------------------------------7-7----
B----7h8-7--------7-----------------------------7--7-7----
G-----------9-7-9----------------------7-7--6-7----0-0----
D---------------------10-10--10-9-10----------------------
A---------------------------------------------------------
E---------------------------------------------------------


Version 2

e--------------------------------------------------7-7----
B----7h8-7----7---------------------------------7--7-7----
G-----------9---9-7--------------------7-7--6-7----0-0----
D---------------------10-10--10-9-10----------------------
A---------------------------------------------------------
E---------------------------------------------------------
Comments