David Bowie - Ziggy Stardust Chords & Tabs

 

Ziggy Stardust Chords & Tabs

David Bowie Chords & Tabs

Version: 6 Type: Tab 0 ratings
1 star 2 stars 3 stars 4 stars 5 stars
comments

Ziggy Stardust Tab

   
-----------------------------------------------------------------------------
			    Ziggy Stardust-David Bowie
-----------------------------------------------------------------------------
Tabbed by:private
Email:GEoMaN003@aol.com

Tuning:EADGBE
This is my first tab.

intro:play 4 times
e|-3--2h3-2h3-2h3----------------------------------------------------------|
B|-3--3---3---3------3-----3-----------------------------------------------|
G|-0--2---2---2--------0-----0---------------------------------------------|
D|-0--0---0---0----2-----0-------------------------------------------------|
A|-2---------------3-----2-----0-------------------------------------------|
E|-3-----------------------------------------------------------------------|
verse 1:play twice
[ Tab from: http://www.guitartabs.cc/tabs/d/david_bowie/ziggy_stardust_tab_ver_6.html ]
Ziggy played guitar...
e|-3-----------2---2\1/2-------0----------------------------0--------------|
B|-3-----------3---3\2/3-------1----------------------------0--------------|
G|-0---------------------------0----------------------------0--------------|
D|-0---------------------------2----------------------------2--------------|
A|-2---------------------------3-3-2-3-4-5/7-5-2-0----------2---0-0-3------|
E|-3-----------------------------------------------3--------0-0------------|
chorus
So where were the spiders 
play 3 times
e|-------------------------------------------------------------------------|
B|-------------------------------------------------------------------------|
G|-------------------------------------------------------------------------|
D|7-7-7-7-7---5-5-5-5-5---3-3-3-3-3-3-3-3--5-------------------------------|
A|7-7-7-7-7---5-5-5-5-5---3-3-3-3-3-3-3-3--5-------------------------------|
E|5-5-5-5-5---3-3-3-3-3---1-0-1-0-1-0-1-0--3-------------------------------|

chorus 2
fourth time
So we b****** about his fans
e|-2-2-0-0-0---------------------------------------------------------------|
B|-3-3-0-0-0---------------------------------------------------------------|
G|-2-2-2-2-2---------------------------------------------------------------|
D|-0-0-2-2-2---------------------------------------------------------------|
A|-0-0-2-2-2---------------------------------------------------------------|
E|-----0-0-0---------------------------------------------------------------|
outro
Ziggy played guitar
e|-0-------3---------------------------------------------------------------|
B|-1-------3---------------------------------------------------------------|
G|-0-------0---------------------------------------------------------------|
D|-2-------0---------------------------------------------------------------|
A|-3-------2---------------------------------------------------------------|
E|---------3---------------------------------------------------------------|

song order
intro 5x
verse 2x
chorus 3x
chorus 2 1x
intro 2x
verse 2x
chorus 3x
chorus 2 1x
intro 3x
outro 1x 

Thats it. This is my first tab and I'm only 13. Tell me if there are any mistakes.


| /  slide up
| \  slide down
| h  hammer-on
| p  pull-off
| ~  vibrato
| +  harmonic
| x  Mute note
=============================================================================
Comments