David Bowie - Ziggy Stardust Chords & Tabs

 

Ziggy Stardust Chords & Tabs

David Bowie Chords & Tabs

Version: 4 Type: Tab 0 ratings
1 star 2 stars 3 stars 4 stars 5 stars
comments

Ziggy Stardust Tab

   
Oka, before we'll start i just want to say that it's not the w-h-o-l-e because i'm 
not sure about the solo, well never mind,
Hope You'll enjoy my tabbing, Meir Fedida, Israel.
let's begin:

Intro (the coolest part!):

|G|G|D|

     -2-3-2-3-2--------------------------|
     -----------3---3-------2------------|     x4
     -----------------2-------0----------|
     ------------------------------------|
     -------------3----3--2-----2--------|
     ------------------------------------|

When Bowie starts singing the chords looks like that
(Play Each Chord 4 Times):

"Ziggy Played Guitar.." And so..

|G|Bm|C (only once)|
[ Tab from: http://www.guitartabs.cc/tabs/d/david_bowie/ziggy_stardust_tab_ver_4.html ]
-------------------------------------------|
-------------------------------------------|
-------------------------------------------|
-------------------------------------------|
-3-3-3-2-3-4-5-5s7-5-----------------------|
---------------------7-5-------------------|

|G|Em|A|D|


"So where were the Spiders..."

-5-5-5-5-5-3-3-3-3-9-1-0-1-0-1-0-1-3-|
-7-7-7-7-7-5-5-5-5-5-3-3-3-3-3-3-3-5-| x3
-7-7-7-7-7-5-3-5-5-5-3-3-3-3-3-3-3-5-|
-------------------------------------|
-------------------------------------|
-------------------------------------|

and then:

|D|E| (Barre)

That's it!!!
i don't the rest of this great song..
i usually improvise my own solo on the pentatonian scale...
Hope You've enjoyed it as much as i was tabbing it!!!
for comments and just for telling me how great am i:
meir.god@gmail.com
Icq:161036893.
Comments