David Bowie - Rebel Rebel Chords & Tabs

 

Rebel Rebel Chords & Tabs

David Bowie Chords & Tabs

Version: 2 Type: Bass Tab 0 ratings
1 star 2 stars 3 stars 4 stars 5 stars
comments

Rebel Rebel Bass Tab

Riff intro:

G:--9-7-6-------------|-------------------------------------|
D:--------9-7-6---0---|-------------------------------------|
A:--------------7-----|-------------------------------------|
E:--------------------|-------------------------------------|

Verse
[ Tab from: http://www.guitartabs.cc/tabs/d/david_bowie/rebel_rebel_btab_ver_2.html ]
      Got your mother in a whirl...
G:----------------|------------------------------------------|
D:----0-0---0-2---|----------2-------------------------------|
A:--------2-------|--------2---------------------------------| repeat
E:----------------|-0--0-0-----------------------------------|

Put you down and say I'm wrong
G:------------------|
D:------------------|
A:--0----0-5----4-2-|
E:------------------|

You tacky thing, You put them on

G:---------------|
D:------2-2-2---2|
A:---2-----------|
E:---------------|

return to main verse bass riff


Hot tramp...       I love you so.

G:----------------|------------------------------------------|
D:--0-------------|-2----------------------------------------|
A:----------------|------------------------------------------|
E:----------------|------------------------------------------|
Comments