David Bowie - Rebel Rebel Chords & Tabs

 

Rebel Rebel Chords & Tabs

David Bowie Chords & Tabs

Version: 1 Type: Bass Tab 0 ratings
1 star 2 stars 3 stars 4 stars 5 stars
comments

Rebel Rebel Bass Tab

-------------------------------------------------------------------------------
			 Rebel Rebel- David Bowe
-------------------------------------------------------------------------------

Tabbed By : Jeff Worsham	
e-mail:Worsham_j@juno.com 

Tuning:EADG
[ Tab from: http://www.guitartabs.cc/tabs/d/david_bowie/rebel_rebel_btab.html ]
   Intro
G|-------9---7--------------------------------------------------------------|
D|---------------9---7---6--------------------------------------------------|
A|------------------------------7-7-----------------------------------------|
E|--------------------------------------------------------------------------|
    Verse
G|--------------------------------------------------------------------------|
D|--------------------------------------------------------------------------|
A|-------5-5-4-5--7-----------0-1-2-3--/--5-5-4-5-7-------------0-1-2-3-----|
E|-------------------0--2--3---------------------------0--2--3--------------|
    Chorus: I just play whole notes! Sounds OK, but he is doing something
            more than that. If you know it please let me know!
G|--------------------------------------------------------------------------|
D|--------------------------------------------------------------------------|
A|------------5---------------7---------------------------------------------|
E|----5--------------7------------------------------------------------------|
Comments