David Bowie - New Killer Star Chords & Tabs

 

New Killer Star Chords & Tabs

David Bowie Chords & Tabs

Version: 1 Type: Tab 0 ratings
1 star 2 stars 3 stars 4 stars 5 stars
comments

New Killer Star Tab

   
-------------------------------------------------------------------------------
			     New Killer Star - David Bowie
-------------------------------------------------------------------------------
Tabbed by: Chris
Email: voodoochild1787@yahoo.com

Intro/main riff:

   Am                Fm                          A+
e|----------------------------------------------------------------------|
B|-11---11---11---1---1---11---11---11---1---1---11---11---11---1---1---|
G|-22-0-22-0-22-0-2-0-2-0-22-0-22-0-22-0-2-0-2-0-22-0-22-0-22-0-2-0-2-0-|
D|-22-0-22-0-22-0-2-0-3-0-33-0-33-0-33-0-3-0-2-0-22-0-22-0-22-0-2-0-3-0-|
A|-----------------------------------------------33---33---33---3-------|
E|----------------------------------------------------------------------|
   F                 Fm   Am
e|-11---11---11---1--------------------|
B|-11---11---11---1---1---11-----------|
G|-22-0-22-0-22-0-2-0-2-0-22-----------|
D|-33-0-33-0-33-0-3-0-3-0-22-----------|
A|-------------------------------------|
E|-------------------------------------|


  see the great white scar, over battery park, then a flare glides over

 Am                Fm                            A+
e|----------------------------------------------------------------------|
B|-11---11---11---1---1---11---11---11---1---1---11---11---11---1---1---|
G|-22-0-22-0-22-0-2-0-2-0-22-0-22-0-22-0-2-0-2-0-22-0-22-0-22-0-2-0-2-0-|
D|-22-0-22-0-22-0-2-0-3-0-33-0-33-0-33-0-3-0-2-0-22-0-22-0-22-0-2-0-3-0-|
A|-----------------------------------------------33---33---33---3-------|
E|----------------------------------------------------------------------|


but i wont look at that scar

 F                 Fm   Am
e|-11---11---11---1---------------------|
B|-11---11---11---1---1-----------------|
G|-22-0-22-0-22-0-2-0-2-0---------------|
D|-33-0-33-0-33-0-3-0-3-0---------------|
A|--------------------------------------|
E|--------------------------------------|
[ Tab from: http://www.guitartabs.cc/tabs/d/david_bowie/new_killer_star_tab.html ]
oh my nuclear baby, oh my idiot trance, all my idiot questions
 Am                Fm                            A+
e|----------------------------------------------------------------------|
B|-11---11---11---1---1---11---11---11---1---1---11---11---11---1---1---|
G|-22-0-22-0-22-0-2-0-2-0-22-0-22-0-22-0-2-0-2-0-22-0-22-0-22-0-2-0-2-0-|
D|-22-0-22-0-22-0-2-0-3-0-33-0-33-0-33-0-3-0-2-0-22-0-22-0-22-0-2-0-3-0-|
A|-----------------------------------------------33---33---33---3-------|
E|----------------------------------------------------------------------|


lets face the music and dance

 F                 Fm   Am
e|-11---11---11---1---------------------|
B|-11---11---11---1---1-----------------|
G|-22-0-22-0-22-0-2-0-2-0---------------|
D|-33-0-33-0-33-0-3-0-3-0---------------|
A|--------------------------------------|
E|--------------------------------------|

dont ever say im ready, im ready, im ready...

Am    Am    Am


I never said im better, im better, im better, better then you...

Fm    Fm    Fm

      All the corners of the buildings...

e|-7-------5------6/7-------------6/7-----6/8----------------------|
B|-7-------5----5-----5-5-5-0-4/55-----5-5-------------------------|
G|-8-------6-------------------------------------------------------|
D|-9-------7-------------------------------------------------------|
A|-9-------7-------------------------------------------------------|
E|-----------------------------------------------------------------|

Who but we remember these?
The sidewalks and trees
I'm thinking now
I got a better way
I discovered a star
I got a better way
Ready, set, go
I got a better way
A new killer star
I got a better way
Ready, set, go
I got a better way
The stars in your eyes
I got a better way
Ready, set, go
I got a better way
I discovered a star
I got a better way
Ready, set, go

See my life in a comic
Like the way they did the Bible
With the bubbles and action
The little details in colour
First a horseback bomber
Just a small thin chance
Like seeing Jesus on Dateline
Let's face the music and dance
Don't ever say I'm ready, I'm ready, I'm ready
I'll never said I'm better, I'm better, I'm better
Don't ever say I'm ready, I'm ready, I'm ready
I'll never said I'm better, I'm better, I'm better, I'm better than you

All the corners of the buildings
Who but we remember these?
The sidewalks and trees
I'm thinking now
I got a better way
I discovered a star
I got a better way
Ready, set, go
I got a better way
A new killer star
I got a better way
Ready, set, go
I got a better way
The stars in your eyes
I got a better way
Ready, set, go
I got a better way
I discovered a star
I got a better way
Ready, set, go
I got a better way
I got a better way
Ready, set, go
I got a better way
I got a better way
Ready, set, go
I got a better way
Oooh oo
I got a better way
Ready, set, go


yeah
Comments