David Bowie - China Girl Chords & Tabs

 

China Girl Chords & Tabs

David Bowie Chords & Tabs

Version: 1 Type: Bass Tab 0 ratings
1 star 2 stars 3 stars 4 stars 5 stars
comments

China Girl Bass Tab

Yeahhh... Im actually more focused on guitar, but this bass line has wayy to much 
to not have a spot on UG.

[ Tab from: http://www.guitartabs.cc/tabs/d/david_bowie/china_girl_btab.html ]
Bassnessness
--------------------------------------------------------------------------|
-----------------------------------------------------2-5---------2-5------|
---------2---------------2-------5-5-5-5-5-5-5-4-3-5-----3-3-3-5-----3-3--|
---0-2-3---0--0----0-2-3---0-0--------------------------------------------|


--------------------------------------------------------------------------|
--------------------------------------------------------------------------|
---2-2-2-2-2--5--3--2-----------------------------------------------------|
--------------------------------------------------------------------------|

Listen to the Cd for the rythym, im too lazy to put that under the tab.

Enjoy!
Comments