David Banner - Cadillacs On 22s Chords & Tabs

 

Cadillacs On 22s Chords & Tabs

David Banner Chords & Tabs

Version: 1 Type: Tab 0 ratings
1 star 2 stars 3 stars 4 stars 5 stars
comments

Cadillacs On 22s Tab

Song: Cadillacs on 22's
By: David Banner

Submitted by: cody R.


This is a pretty simple song to play once you get the hang of it.
Basically there are only three chords:

C, Bb, and F (in that order)

This is next part is far from 100% accurate, but I just figured this
song out, and this should help give you some idea of how it goes:

[ Tab from: http://www.guitartabs.cc/tabs/d/david_banner/cadillacs_on_22s_tab.html ]
e|------------------------------------------------------|
B|----------1-------------------3--0-------------3------|
G|------0-------0-----------0------------------3---3----|
D|----2---2---2---2-------2------------------3----------|
A|--3-------------------------------------1-------------|
E|---------------------0--------------------------------| ...

e|-----------------------|
B|--1--------------------|
G|--2--------0h2-0-------|
D|--3------3-------3-----|
A|-----------------------|
E|--1--------------------|

Repeat throughout song

I hope this helps. If you have any corrections or suggestions,
please let me know. Email me at gwyatt@clemson.edu
Thanks, and enjoy
Comments