Dave Navarro - Rexall Chords & Tabs

 

Rexall Chords & Tabs

Dave Navarro Chords & Tabs

Version: 1 Type: Tab 0 ratings
1 star 2 stars 3 stars 4 stars 5 stars
comments

Rexall Tab

   
dave navarro, rexall.
 Tabbed by fayreblood, fayreblood67@msn.com.
  
Rexall        Tunning:standard    moderate rythm

E-----------------3-3-3-3
A-0-0-0-0-0-0-0-0-2-2-2-2     
D-4^5-5-5-4-4-2^4-0-0-0-0      intro(let ring)
G-2-2-2-2-2-2-2-2-0-0-0-0
B-3-3-3-3-3-3-3-3-3-3-3-3
E-----------------3-3-3-3

1st verse
E-------------------3-3-3-3-3-3-3-3-3
A-------------------2-2-2-2-2-2-2-2-2
D-0-0-0-0-0-0-0-0-0-0-0-0-0-0-0-0-0-0
G-0^2-2-2-2-2-2-2-2-0-0-0-0-0-0-0-0-0
B-3-3-3-3-3-3-3-3-3-3-3-3-3-3-3-3-3-3
E-0-0-0-0-0-0-0-0-0-3-3-3-3-3-3-3-3-3

Chorus:
D5//////F//////A#//////E////

2nd verse is like 1st v but start with G instead of D
[ Tab from: http://www.guitartabs.cc/tabs/d/dave_navarro/rexall_tab.html ]
Melody:
E-------------------------
A-------------------------
D--4-4-4-4-0-0-0-0-6-6-6-6
G--x-x-x-x-x-x-x-x-x-x-x-x
B--7-7-7-7-3-3-3-3-9-9-9-9
E-------------------------

2nd melody(higher) wah
only on Bstring
B--10-10-10-9-9-9-13-13-13-7-7-7-7

i have posted almost the whole album on the dave navarro official site and this is the only non-dave related site ive chose to post at. for the most part this is as accurate as it gets and you can check out this album for free at Davenavarro.net/dnplayer. on a more personal note i have been playing for 11 yrs and have a great ear for tabbing so let me know what you think and ill gladly submit more songs that you cannot find anywhere on the net. thanks 
:: Ultimate Guitar Archive :: 
http://www.ultimate-guitar.com 



Comments