Dave Navarro - National Anthem Chords & Tabs

 

National Anthem Chords & Tabs

Dave Navarro Chords & Tabs

Version: 1 Type: Tab 0 ratings
1 star 2 stars 3 stars 4 stars 5 stars
comments

National Anthem Tab

The National Anthem

Tabbed by: offsetnate@yahoo.com

e--0-------0-5--9-7-5--------0-0-9-7-5-4-2-4-5-5--------|
B----2---2------------2-4-5----------------------5-2----|
G------2---------------------------------------------2--| X2
D-------------------------------------------------------|
A-------------------------------------------------------|
E-------------------------------------------------------|

e--9-9-9-10-12-12--10-9-7-9-10-10-|
B---------------------------------|
G---------------------------------|
D---------------------------------|
A---------------------------------|
E---------------------------------|
[ Tab from: http://www.guitartabs.cc/tabs/d/dave_navarro/national_anthem_tab.html ]
e-10-9--7-5-4--2-4-5--5--------|
B-----------------------5-2----|
G---------------------------2--|
D------------------------------|
A------------------------------|
E------------------------------|

e--0-5-5-5-4-2-2-2-7-10-9-7-5---4--|
B----------------------------------|
G----------------------------------|
D----------------------------------|
A----------------------------------|
E----------------------------------|

e-0-0-5--7-9-10-12--5-7-9--10-7--5--|
B-----------------------------------|
G-----------------------------------|
D-----------------------------------|
A-----------------------------------|
E-----------------------------------|

This one sounds really good with distortion and
alot of feedback.
Comments