Dave Matthews Band - You Might Die Trying Chords & Tabs

 

You Might Die Trying Chords & Tabs

Dave Matthews Band Chords & Tabs

Version: 2 Type: Tab 0 ratings
1 star 2 stars 3 stars 4 stars 5 stars
comments

You Might Die Trying Tab

Tabbed by: Anthony Hensley	 
Email: Atrain1785	

Song: You Might Die Trying
Artist: Dave Matthews Band
Album: Stand Up (2005)

Tuning: Standerd

THIS IS MY FAVORIT SONG OF THE NEW CD I JUST PICKED IT UP THE OTHER DAY
AND I NEEDED TO TAB IT OUT SO US DAVE HEADS CAN PLAY IT. I WAS WATCHING 
HIM LIVE AT THE CONCERT AND I PICKED UP ON SOME OF THE CHORDS HE WAS PLAYING
SO I TOOK IT FROM THERE MOST OF IT IS BY EAR. HOPE IT IS WRITE FOR YA GUYS.

VERSE/chorus (Play the whole song palm muted even solo)
e|-------------------------------------------------------------------------|
B|-------------------------------------------------------------------------|
G|-------------------------------------------------------------------------|
D|-----------------------------------------3-3-3-3-3-----------------------|
A|--8---8--8h10h12-----8---8--8h10h12------3-3-3-3-3-----------------------|
E|-10--10-10-10-10----10--10-10-10-10------1-1-1-1-1-----------------------|

Breakdown or bridge 
e|-------------------------------------------------------------------------|
B|-------------------------------------------------------------------------|
G|-------------------------------------------------------------------------|
D|-3-3-3-3-3-3----3-3-3-3-3-3----3-3-3-3-3-3-x-3-3-3-3-3-3-----------------|
A|-x-x-x-x-x-x----5-5-5-5-5-5----x-x-x-x-x-x-x-x-x-x-x-x-x-----------------|
E|-3-3-3-3-3-3----6-6-6-6-6-6----1-1-1-1-1-1-x-1-1-1-1-1-1-----------------|

during the jam dave dosnt play till towards the middle you can make something up
if you want i just let my drummer and bass player jam. this solo is close i think.
try it for yourself.
[ Tab from: http://www.guitartabs.cc/tabs/d/dave_matthews_band/you_might_die_trying_tab_ver_2.html ]
SOLO (in the middle of jam)
e|-------------------------------------------------------------------------|
b|-------------10----------------------------------------------------------|
G|-------10-12---12-10------10--10-12-12-12p10-10--------------------------|
D|-10-12--------------12--12--12-----------------12------------------------|
A|-------------------------------------------------------------------------|
E|-------------------------------------------------------------------------|

e|-------------------------------------------------------------------------|
B|-15-13--10---------------------------------------------------------------|
G|----------12--10-12-10---10-12-12-12p10---15-13-12-10--------------------|
D|-----------------------12--------------12--------------------------------|
A|-------------------------------------------------------------------------|
E|-------------------------------------------------------------------------|

play this softer

(outro)
e|-------------------------------------------------------------------------|
B|-15-13--10--13-10-13-15---15-13--10--13-10-13-15---15-13--10--13-10-13-15|
G|-------------------------------------------------------------------------|
D|-------------------------------------------------------------------------|
A|-------------------------------------------------------------------------|
E|-------------------------------------------------------------------------|

e|-------------------------------------------------------------------------|
B|-15-13-12-10---15-13--10--13-10-13-15---15-13--10--13-10-13-15-----------|
G|-------------------------------------------------------------------------|
D|-------------------------------------------------------------------------|
A|-------------------------------------------------------------------------|
E|-------------------------------------------------------------------------|

Good Luck everyone email me with other ideas.
Comments