Dave Matthews Band - Where Are You Going Chords & Tabs

 

Where Are You Going Chords & Tabs

Dave Matthews Band Chords & Tabs

Version: 1 Type: Tab 0 ratings
1 star 2 stars 3 stars 4 stars 5 stars
comments

Where Are You Going Tab

"Where Are You Going"
by Dave Matthews Band
off the album Busted Stuff

tabbed by Joshua Kirsch
e-mail me for any questions, comments, or corrections:
joshua@hhhworld.com


_________________________________________________________________________________
INTRO

     4   +    1   +   2   +   3   +   4   +    1   +   2   +   3   +   4   +

 e ||3h5-----|--------5-----5---5-----3h5-----|--------5-----5---5-----3h5-----|
 B ||------3-|--------3-----3---3-----------3-|--------3-----3---3-----------3-|
 G ||0h2-----|--------2-----2---2-----0h2-----|0-------2-----2---2-----0h2-----|
 D ||--------|0-------------------0-----------|--------------------0-----------|
 A ||--------|--------------------------------|--------------------------------|
 E ||--------|--------------------------------|--------------------------------|


    1   +   2   +   3   +   4   +    1   +   2   +   3   +   4   +

 e |--------2-----2---2-----3h5-----|--------0-----0---0-----3h5-----|
 B |0-------3-----3---3-----------3-|--------3-----3---3-----------3-|
 G |--------2-----2---2-----0h2-----|2-------2-----2---2-----0h2-----|
 D |--------------------0-----------|--------------------0-----------|
 A |--------------------------------|--------------------------------|
 E |--------------------------------|--------------------------------|



_________________________________________________________________________________
VERSE                                                                      _
                                                                            |
    1   +   2   +   3   +   4   +    1   +   2   +   3   +   4   +          |     |
                                                                          |
                                                                            |
 e |--------5-----5---5-----3h5-----|--------5-----5---5-----3h5-----|      |
 B |--------3-----3---3-----------3-|--------3-----3---3-----------3-|      |
 G |--------2-----2---2-----0h2-----|--------0-----0---0-----0h2-----|      |
 D |0-------------------0-----------|--------0-----0---0-------------|      |
 A |--------------------------------|--------------------------------|      |
 E |--------------------------------|3-------------------3-----------|      |
                                                                            | repeat
                                                                            | 1x
    1   +   2   +   3   +   4   +    1   +   2   +   3   +   4   +          |
                                                                            |
         
                                                                            |
 e |--------2-----2---2-----3h5-----|--------0-----0---0-----3h5-----|      |
 B |--------3-----3---3-----------3-|--------3-----3---3-----------3-|      |
 G |--------0-----0---0-----0h2-----|--------2-----2---2-----0h2-----|      |
 D |--------0-----0---0-------------|--------2-----2---2-------------|      |
 A |2-------------------2-----------|0-------------------0-----------|      |
 E |--------------------------------|--------------------------------|      |
                                                                           _|


_________________________________________________________________________________
CHORUS                                                                     _
                                                                            |
    1   +   2   +   3   +   4   +    1   +   2   +   3   +   4   +          |
                                                                            |
                                                                            |
                                                                            |
                                                                            | repeat
 e |--------5-----5---------5-----5-|--------3-----3---3-----3-----3-|      | 2x
 B |--------3-----3---------3-----3-|--------3-----3---3-----3-----3-|      |
 G |--------2-----2---------0-----0-|--------0-----0---0-----0-----0-|      |
 D |0-------------------------------|--------------------------------|      |
 A |----------------3---------------|2---------------1---------------|      |
 E |--------------------------------|--------------------------------|      |
                                                                           _|


    1   +   2   +   3   +   4   +    1   +   2   +   3   +   4   +
     

 e |--------5-----5---------5-----5-|--------3-----3---3-----3-----3-|
 B |--------3-----3---------3-----3-|--------3-----3---3-----3-----3-|
 G |--------2-----2---------2-----2-|--------0-----0---0-----0-----0-|
 D |0-------------------------------|--------------------------------|
 A |----------------3---------------|1-------------------1-----------|
 E |--------------------------------|--------------------------------|


    1   +   2   +   3   +   4   +    1   +   2   +   3   +   4   +
                                                                     

 e |--3-----3-----3---3-----3-------|5-------5-----5---5-----5-------|
 B |--3-----3-----3---3-----3-------|3-------3-----3---3-----3-------|
 G |--0-----0-----0---0-----0-------|2-------2-----2---2-----2-------|
 D |--------------------------------|0-------------------0-----------|
 A |1---------------1---------------|--------------------------------|
 E |--------------------------------|--------------------------------|


    1   +   2   +   3   +   4   +    1   +   2   +   3   +   4   +
   

 e |--------------------------------|--------------------------------|
 B |3-------3-----3---3-----3-----3-|--3-----3-----3---3-----3-------|
 G |4-------4-----4---4-----4-----4-|--4-----4-----4---4-----4-------|
 D |2-------2-----2---2-----2-----2-|--2-----2-----2---2-----2-------|
 A |3---------------3---------------|3---------------3---------------|
 E |--------------------------------|--------------------------------|



_________________________________________________________________________________
VERSE                                                                      _
                                                                            |
    1   +   2   +   3   +   4   +    1   +   2   +   3   +   4   +                                               |
                                                                            |
                                                                            |
                                                                            |
 e |--------5-----5---5-----3h5-----|--------5-----5---5-----3h5-----|      |
 B |--------3-----3---3-----------3-|--------3-----3---3-----------3-|      |
 G |--------2-----2---2-----0h2-----|--------0-----0---0-----0h2-----|      |
 D |0-------------------0-----------|--------0-----0---0-------------|      |
 A |--------------------------------|--------------------------------|      |
 E |--------------------------------|3-------------------3-----------|      |
                                                                            | repeat
                                                                            | 2x
    1   +   2   +   3   +   4   +    1   +   2   +   3   +   4   +          |
                                                                            |
                                                                            |
                                                                            |
 e |--------2-----2---2-----3h5-----|--------0-----0---0-----3h5-----|      |
 B |--------3-----3---3-----------3-|--------3-----3---3-----------3-|      |
 G |--------0-----0---0-----0h2-----|--------2-----2---2-----0h2-----|      |
 D |--------0-----0---0-------------|--------2-----2---2-------------|      |
 A |2-------------------2-----------|0-------------------0-----------|      |
 E |--------------------------------|--------------------------------|      |
                                                                           _|


_________________________________________________________________________________
CHORUS                                                                     _
                                                                            |
    1   +   2   +   3   +   4   +    1   +   2   +   3   +   4   +          |
                                                                            |
                                                                            |
                                                                            | repeat
 e |--------5-----5---------5-----5-|--------3-----3---3-----3-----3-|      | 2x
 B |--------3-----3---------3-----3-|--------3-----3---3-----3-----3-|      |
 G |--------2-----2---------0-----0-|--------0-----0---0-----0-----0-|      |
 D |0-------------------------------|--------------------------------|      |
 A |----------------3---------------|2---------------1---------------|      |
 E |--------------------------------|--------------------------------|      |
                                                                           _|


    1   +   2   +   3   +   4   +    1   +   2   +   3   +   4   +
         

 e |--------5-----5---------5-----5-|--------3-----3---3-----3-----3-|
 B |--------3-----3---------3-----3-|--------3-----3---3-----3-----3-|
 G |--------2-----2---------2-----2-|--------0-----0---0-----0-----0-|
 D |0-------------------------------|--------------------------------|
 A |----------------3---------------|1-------------------1-----------|
 E |--------------------------------|--------------------------------|


    1   +   2   +   3   +   4   +    1   +   2   +   3   +   4   +
                                          

 e |--3-----3-----3---3-----3-------|5-------5-----5---5-----5-------|
 B |--3-----3-----3---3-----3-------|3-------3-----3---3-----3-------|
 G |--0-----0-----0---0-----0-------|2-------2-----2---2-----2-------|
 D |--------------------------------|0-------------------0-----------|
 A |1---------------1---------------|--------------------------------|
 E |--------------------------------|--------------------------------|


    1   +   2   +   3   +   4   +    1   +   2   +   3   +   4   +
   

 e |--------------------------------|--------------------------------|
 B |3-------3-----3---3-----3-----3-|--3-----3-----3---3-----3-------|
 G |4-------4-----4---4-----4-----4-|--4-----4-----4---4-----4-------|
 D |2-------2-----2---2-----2-----2-|--2-----2-----2---2-----2-------|
 A |3---------------3---------------|3---------------3---------------|
 E |--------------------------------|--------------------------------|



_________________________________________________________________________________
VERSE

    1   +   2   +   3   +   4   +    1   +   2   +   3   +   4   +
             

 e |--------5-----5---5-----3h5-----|--------5-----5---5-----3h5-----|
 B |--------3-----3---3-----------3-|--------3-----3---3-----------3-|
 G |--------2-----2---2-----0h2-----|--------0-----0---0-----0h2-----|
 D |0-------------------0-----------|--------0-----0---0-------------|
 A |--------------------------------|--------------------------------|
 E |--------------------------------|3-------------------3-----------|


    1   +   2   +   3   +   4   +    1   +   2   +   3   +   4   +
                                            

 e |--------2-----2---2-----3h5-----|--------0-----0---0-----0-----0-|
 B |--------3-----3---3-----------3-|--------3-----3---3-----3-----3-|
 G |--------0-----0---0-----0h2-----|--------2-----2---2-----2-----2-|
 D |--------0-----0---0-------------|--------2-----2---2-----2-----2-|
 A |2-------------------2-----------|0-------------------0-----------|
 E |--------------------------------|--------------------------------|


    1   +   2   +   3   +   4   +


 e |--0-----0-----0---0-----0-0-----|
 B |--3-----3-----3---3-----3-3-----|
 G |--2-----2-----2---2-----2-2-----|
 D |--2-----2-----2---2-----2-2-----|
 A |0---------------0---------------|
 E |--------------------------------|



_________________________________________________________________________________
BRIDGE

    1   +   2   +   3   +   4   +    1   +   2   +   3   +   4   +
[ Tab from: http://www.guitartabs.cc/tabs/d/dave_matthews_band/where_are_you_going_tab.html ]
 e |3-------3-----3---2-----2-----2-|------------------0-----0-----0-|
 B |3-------3-----3---3-----3-----3-|--------3-----3---3-----3-----3-|
 G |0-------0-----0---2-----2-----2-|--------0-----0---0-----0-----0-|
 D |2-------2-------0-------0-----0-|--------0-----0---2-----2-----2-|
 A |2-------2-----------------------|2-------2-------3---3---3-------|
 E |0-------0-----------------------|--------------------------------|


    1   +   2   +   3   +   4   +    1   +   2   +   3   +   4   +

 e |--------3-----3---2-----2-----2-|------------0-------0---0---0---|
 B |--------3-----3---3-----3-----3-|------3-----3-------3---3---3---|
 G |--------0-----0---2-----2-----2-|------0-----0-------0---0---0---|
 D |--------2-------0-------0-----0-|------0-----2-------2---2---2---|
 A |--------2-----------------------|2-----2-----3-------3---3---3---|
 E |0-------0-----------------------|--------------------------------|



    1   +   2   +   3   +   4   +    1   +   2   +   3   +   4   +

 e |3-------3-----3---2-----2-----2-|------------------0-----0-----0-|
 B |3-------3-----3---3-----3-----3-|--------3-----3---3-----3-----3-|
 G |0-------0-----0---2-----2-----2-|--------0-----0---0-----0-----0-|
 D |2-------2-------0-------0-----0-|--------0-----0---2-----2-----2-|
 A |2-------2-----------------------|2-------2-------3---3---3-------|
 E |0-------0-----------------------|--------------------------------|


    1   +   2   +   3   +   4   +    1   +   2   +   3   +   4   +

 e |--------3-----3---2-----2-----2-|------------0-----------0-------|
 B |--------3-----3---3-----3-----3-|------3-----3-----------3-------|
 G |--------0-----0---2-----2-----2-|------0-----0-----------0-------|
 D |--------2-----2---0-----0-----0-|------0-----2-----------2-------|
 A |--------2-------0---------------|2-----2-----3-----------3-------|
 E |0-------0-----------------------|--------------------------------|


    1   +   2   +   3   +   4   +
               

 e |--------0-----------------------|
 B |--------3-----------------------|
 G |--------0-----------------------|
 D |--------2-----------------------|
 A |--------3-----------------------|
 E |--------------------------------|



_________________________________________________________________________________
VERSE

    1   +   2   +   3   +   4   +    1   +   2   +   3   +   4   +
          

 e |--------5-----5---5-----3h5-----|--------5-----5---5-----3h5-----|
 B |--------3-----3---3-----------3-|--------3-----3---3-----------3-|
 G |--------2-----2---2-----0h2-----|--------0-----0---0-----0h2-----|
 D |0-------------------0-----------|--------0-----0---0-------------|
 A |--------------------------------|--------------------------------|
 E |--------------------------------|3-------------------3-----------|


    1   +   2   +   3   +   4   +    1   +   2   +   3   +   4   +
                                            

 e |--------2-----2---2-----3h5-----|--------0-----0---0-----3h5-----|
 B |--------3-----3---3-----------3-|--------3-----3---3-----------3-|
 G |--------0-----0---0-----0h2-----|--------2-----2---2-----0h2-----|
 D |--------0-----0---0-------------|--------2-----2---2-------------|
 A |2-------------------2-----------|0-------------------0-----------|
 E |--------------------------------|--------------------------------|



_________________________________________________________________________________
CHORUS                                                                     _
                                                                            |
    1   +   2   +   3   +   4   +    1   +   2   +   3   +   4   +          |
                    am      no       su----per   man                        |
                                                                            |
                                                                            |
                                                                            | repeat
 e |--------5-----5---------5-----5-|--------3-----3---3-----3-----3-|      | 2x
 B |--------3-----3---------3-----3-|--------3-----3---3-----3-----3-|      |
 G |--------2-----2---------0-----0-|--------0-----0---0-----0-----0-|      |
 D |0-------------------------------|--------------------------------|      |
 A |----------------3---------------|2---------------1---------------|      |
 E |--------------------------------|--------------------------------|      |
                                                                           _|


    1   +   2   +   3   +   4   +    1   +   2   +   3   +   4   +
         

 e |--------5-----5---------5-----5-|--------3-----3---3-----3-----3-|
 B |--------3-----3---------3-----3-|--------3-----3---3-----3-----3-|
 G |--------2-----2---------2-----2-|--------0-----0---0-----0-----0-|
 D |0-------------------------------|--------------------------------|
 A |----------------3---------------|1-------------------1-----------|
 E |--------------------------------|--------------------------------|


    1   +   2   +   3   +   4   +    1   +   2   +   3   +   4   +
                               i

 e |--3-----3-----3---3-----3-------|5-------5-----5---5-----5-------|
 B |--3-----3-----3---3-----3-------|3-------3-----3---3-----3-------|
 G |--0-----0-----0---0-----0-------|2-------2-----2---2-----2-------|
 D |--------------------------------|0-------------------0-----------|
 A |1---------------1---------------|--------------------------------|
 E |--------------------------------|--------------------------------|


    1   +   2   +   3   +   4   +    1   +   2   +   3   +   4   +
    

 e |--------------------------------|--------------------------------|
 B |3-------3-----3---3-----3-----3-|--3-----3-----3---3-----3-------|
 G |4-------4-----4---4-----4-----4-|--4-----4-----4---4-----4-------|
 D |2-------2-----2---2-----2-----2-|--2-----2-----2---2-----2-------|
 A |3---------------3---------------|3---------------3---------------|
 E |--------------------------------|--------------------------------|



_________________________________________________________________________________
VERSE

    1   +   2   +   3   +   4   +    1   +   2   +   3   +   4   +
             

 e |--------5-----5---5-----3h5-----|--------5-----5---5-----3h5-----|
 B |--------3-----3---3-----------3-|--------3-----3---3-----------3-|
 G |--------2-----2---2-----0h2-----|--------0-----0---0-----0h2-----|
 D |0-------------------0-----------|--------0-----0---0-------------|
 A |--------------------------------|--------------------------------|
 E |--------------------------------|3-------------------3-----------|


    1   +   2   +   3   +   4   +    1   +   2   +   3   +   4   +
                                            

 e |--------2-----2---2-----3h5-----|--------0-----0---0-----3h5-----|
 B |--------3-----3---3-----------3-|--------3-----3---3-----------3-|
 G |--------0-----0---0-----0h2-----|--------2-----2---2-----0h2-----|
 D |--------0-----0---0-------------|--------2-----2---2-------------|
 A |2-------------------2-----------|0-------------------0-----------|
 E |--------------------------------|--------------------------------|


    1   +   2   +   3   +   4   +    1   +   2   +   3   +   4   +
         

 e |--------5-----5---5-----3h5-----|--------5-----5---5-----3h5-----|
 B |--------3-----3---3-----------3-|--------3-----3---3-----------3-|
 G |--------2-----2---2-----0h2-----|--------0-----0---0-----0h2-----|
 D |0-------------------0-----------|--------0-----0---0-------------|
 A |--------------------------------|--------------------------------|
 E |--------------------------------|3-------------------3-----------|


    1   +   2   +   3   +   4   +    1   +   2   +   3   +   4   +
                                            

 e |--------2-----2---2-----3h5-----|--------0-----0---0-----0-----0-|
 B |--------3-----3---3-----------3-|--------3-----3---3-----3-----3-|
 G |--------0-----0---0-----0h2-----|--------2-----2---2-----2-----2-|
 D |--------0-----0---0-------------|--------2-----2---2-----2-----2-|
 A |2-------------------2-----------|0-------------------0-----------|
 E |--------------------------------|--------------------------------|


    1   +   2   +   3   +   4   +
                

 e |--------0-----0---0-----3h5-----|
 B |--------3-----3---3-----------3-|
 G |--------2-----2---2-----0h2-----|
 D |--------2-----2---2-------------|
 A |0-------------------0-----------|
 E |--------------------------------|



_________________________________________________________________________________
OUTRO

    1   +   2   +   3   +   4   +    1   +   2   +   3   +   4   +

 e |--------5-----5---5-----3h5-----|--------5-----5---5-----3h5-----|
 B |--------3-----3---3-----------3-|--------3-----3---3-----------3-|
 G |--------2-----2---2-----0h2-----|--------2-----2---2-----0h2-----|
 D |0-------------------0-----------|0-------------------0-----------|
 A |--------------------------------|--------------------------------|
 E |--------------------------------|--------------------------------|


    1   +   2   +   3   +   4   +    1   +   2   +   3   +   4   +

 e |--------5-----5---5-----3h5-----|--------------------------------||
 B |--------3-----3---3-----------3-|--------------------------------||
 G |--------2-----2---2-----0h2-----|--------------------------------||
 D |0-------------------0-----------|0-------------------------------||
 A |--------------------------------|--------------------------------||
 E |--------------------------------|--------------------------------||




  ###########################################################################################
  # KEY                                                                                     #
  #                                                                              _          #
  #                                                                               |         #
  #       1   +   2   +   3   +   4   +    1   +   2   +   3   +     < beat       |         #
  #  1    lyrics sung first time                                                  |         #
  #  2    lyrics sung seccond time (1st repeat)                                   |         #
  #  3    lyrics sung third time (2nd repeat)                                     |         #
  #                                                                               |         #
  #   e ||--------------------------------|--------------------------------|      |         #
  #   B ||--------------------------------|--------------------------------|      |         #
  #   G ||--------- 1 measure ------------|--------- 1 measure ------------|      |         #
  #   D ||--------------------------------|--------------------------------|      |         #
  #   A ||--------------------------------|--------------------------------|      |         #
  #   E ||--------------------------------|--------------------------------|      |         #
  #                                                                               |         #
  #      ^ marks beginning of song                                                | repeat  #
  #                                                                               | 2x      #
  #      1   +   2   +   3   +   4   +    1   +   2   +   3   +   4   +           |         #
  #  1   lyrics sung first time                                                   |         #
  #  2   lyrics sung seccond time (1st repeat)                                    |         #
  #  3   lyrics sung third time (2nd repeat)                                      |         #
  #                                                                               |         #
  #   e |--------------------------------|--------------------------------||      |         #
  #   B |--------------------------------|--------------------------------||      |         #
  #   G |--------- 1 measure ------------|--------- 1 measure ------------||      |         #
  #   D |--------------------------------|--------------------------------||      |         #
  #   A |--------------------------------|--------------------------------||      |         #
  #   E |--------------------------------|--------------------------------||      |         #
  #                                                                               |         #
  #   ^ tuning                                           marks end of song ^      |         #
  #                                                                              _|         #
  #                                                                     
Comments