Dave Matthews Band - Where Are You Going Chords & Tabs

 

Where Are You Going Chords & Tabs

Dave Matthews Band Chords & Tabs

Version: 2 Type: Chords 0 ratings
1 star 2 stars 3 stars 4 stars 5 stars
comments

Where Are You Going Chords

   
=-=-=-=-=-=-=-=-=-=-=-=-=-=-=-=-=
Artist: Dave Matthews Band
Song: Where Are You Going
Album: Busted Stuff
Tabbed by: Leandro Koren
Mail: leandro_koren@yahoo.com.ar
=-=-=-=-=-=-=-=-=-=-=-=-=-=-=-=-=

Intro & Verses: Dsus4 G/B D/E D/A (the second chord is not the one in the intro, it sounds
good when you don't play the intro for the verses).
Standard tuning.

         Dsus4               D/B                 D/E                 D/A
 -----------0-0-0--  -----------0-0-0--  -----------0-0-0--  -----------0-0-0--
 ------3----3-3-3--  ------3----3-3-3--  ------3----3-3-3--  ------3----3-3-3--
 --0h2------2-2-2--  --0h2------2-2-2--  --0h2------2-2-2--  --0h2------2-2-2--
 --------0---------  ------------------  --------2--2-2-2--  ------------------
 ------------------  --------2--2-2-2--  ------------------  --------0--0-0-0--
 ------------------  ------------------  ------------------  ------------------

Verse:

Where are you going, with your long face pulling down?
Donít hide away, like an ocean
But you can't see, but you can smell
And the sound waves crash down

Chorus: D D/F# G C9
[ Tab from: http://www.guitartabs.cc/tabs/d/dave_matthews_band/where_are_you_going_crd_ver_2.html ]
 --2-- --0-- --3-- --3--
 --3-- --3-- --3-- --3--
 --2-- --2-- --0-- --0--
 --0-- --0-- --0-- --2--
 ----- ----- --2-- --3--
 ----- --2-- --3-- -----

I am no superman
I have no reasons for you
I am no hero, oh that's for sure
  D    D/F#          G (hold this chord)
But I do know one thing
                                 D
Is where you are, is where I belong
       C             C9       C             D
I do know, where you go, is where I want to be

Verse:

Where are you going, where do you go?
Are you looking for answers, to questions under the stars?
If along the way you are growing weary,
You can rest with me until a brighter day
You're okay.

Chorus:

I am no superman.
I have no answers for you.
I am no hero, oh that's for sure.
But I do know one thing.
Is where you are, is where I belong.
I do know, where you go, is where I want to be.

Where are you going, where do you go?

Sax Solo:  G D  Bm  C(9th) X4
           G D (and back to the verse)

Verse:

Where do you go?, where are you going?
Where do you go?

Chorus:

I am no superman.
I have no answers for you.
I am no hero, oh that's for sure.
But I do know one thing.
Is where you are, is where I belong.
I do know, where you go, is where I want to be.

Where are you going?
Where do you go?
Tell me where are you going?
Where you?
Letís go.

End on Dsus4.
Comments