Dave Matthews Band - Where Are You Going Chords & Tabs

 

Where Are You Going Chords & Tabs

Dave Matthews Band Chords & Tabs

Version: 1 Type: Bass Tab 0 ratings
1 star 2 stars 3 stars 4 stars 5 stars
comments

Where Are You Going Bass Tab

Title: Where Are You Going?
Artist: Dave Matthews Band
Album: Busted Stuff       By: Kevin Prendergast 7/23/02


This is the awesome bass tab to DMB’s awesome new song where are you going

You have to use a 5-string bass for this song because the lowest note is B#
Played on the low B string so sorry if you don’t have a 5-string

Hold note=^
Slide Note =/
Only play when noted=*

This is the beginning 
G---------------------------------|
D---------------------------------|
A---------5-----------------------|
E-------------3/7/5---------------|
B--3^-----------------------------|
This is the chorus which you have to listen to, too understand the tab
At the end of third one of these do the chorus then do this walk
[ Tab from: http://www.guitartabs.cc/tabs/d/dave_matthews_band/where_are_you_going_btab.html ]
			*	*	*	*
G-------------------------------------------------------|
D-------10-9-8/5----------------------------------------|
A----5/10------5--------3-------1^----------------------|
E-------------------------------------------------------|
B---------------------------------------3-------1-------|

This is the part with the violin Play 2 times and on the second time instead of playing the last B# on the A you play it on the B string
G-------------------------------------------------|
D-------------------------------------------------|
A------------2--3------------7---5----2--3--------|
E---------------------3--5------------------------|
B----5---3----------------------------------------|
Any suggestions or comments email me at Babyboucher33@netscape.net
Comments