Dave Matthews Band - When The World Ends Chords & Tabs

 

When The World Ends Chords & Tabs

Dave Matthews Band Chords & Tabs

Version: 1 Type: Tab 1 rating
1 star 2 stars 3 stars 4 stars 5 stars
comments

When The World Ends Tab

I know this is right from seeing Dave play it from 2nd row. :)
Verse
e------------------------
B------------------------
G---7----6---12---11--9--
D---5----2----9----7--5--
A------------------------
E--7---5----12---10---8--
[ Tab from: http://www.guitartabs.cc/tabs/d/dave_matthews_band/when_the_world_ends_tab.html ]
Chorus
e--------------	
B--------------
G--2--5--5--5--
D--3--3--3--3--
A--3--4--x--x--
E--1-----4--6--
Note:In the second measure of the chorus, Dave skips the 2nd chord.

Bridge
e--2---------
B--3------2--
G--2------2--
D--0--4-5-2-- 
A---------0--
E-----2-3----   4 times, then:

e--2---------2--2-----
B--3---------3--3-----
G--2---------2--2--9--
D--0--4-5-2--0--0--5--
A---------2-----------
E-----2-3-0--------8--
Comments